Войти:  Facebook Google Twitter Vk Yandex Mail.ru
PrimaNota.ru - самый крупный в мире бесплатный архив песенных текстов, аккордов, табулатур и нот


Charlie Parker - Bird Feathers - табы

Печатать
Поддержи лучшую metal-группу Петербурга!

Bird Feathers

  • аккорды, текст

Авторы музыки: Charlie Parker

"Bird Feathers" Written By Charlie Parker
Tuning: Standard
Time: 4/4 Swing
Beats counted "1-e-a-" represent eight note triplets.
Beats counted "1--+--" represent swung eighth notes.

Form: 

Opening Head: Play tab as written, once with first ending, once with second ending.
Solo Section: Improvise over chord structure with first ending, repeat as desired.
Closing Head: Play tab as written, once with first ending, once with second ending. 

[Head]

  Bb6 
e|------------------------|------------------------|------------------------|------------------------|
B|------------------------|------------------------|---------3--4-3---------|------------3-----------|
G|5--------3--------2-----|------2--5--3-----2-----|----------------5-3--5--|---------3--------------|
D|---------------5--------|---5-----------5-----5--|3-----------------------|---4-----------------3--|
A|------------------------|------------------------|------------------------|------------------------|
E|------------------------|------------------------|------------------------|------------------------|
  1  +  2  +  3  +  4  +   1  +  2  +  3  +  4  +   1  +  2  +  3 e a 4  +   1  +  2  +  3  +  4  +

  Eb6                      Ab7                      Bb6                      G7
e|------------------------|------------------------|------------------------|------------------------|
B|------------------------|---6--4-----3-----------|------------------------|---4--------3-----------|
G|--------------------3-5-|--------3---------------|5--------3-----2--------|---------------------2--|
D|------------3-----4-----|4---------4----------6--|---------------------3--|5-----------------------|
A|6--------5-----6--------|------------------------|------------------------|------------------------|
E|------------------------|------------------------|------------------------|------------------------|
  1  +  2  +  3  +  4 e a  1  +  2 e a 3  +  4  +   1  +  2  +  3  +  4  +   1  +  2  +  3  +  4  +

  Cm7                      F7                       Dm7
e|------------------------|------------------------|------------------------|
B|------------------------|------3-----------3-----|------------------------|
G|5-----5--------3--------|----3----3--5--3--------|------3--------------2--|
D|---------------------5--|--5------------------3--|---------2--------5-----|
A|------------------------|6-----------------------|------------------------|
E|------------------------|------------------------|------------------------|
  1  +  2  +  3  +  4  +   1 e a 2  +  3  +  4  +   1  +  2  +  3  +  4  +

 |----First Ending--------||-----Second Ending------||
 |Cm7         F7          ||Cm7         F7    Bb6   ||
e|------------------------||------------------------||
B|------------------------||------------------------||
G|3-----------------------||3-----------------2--3--||
D|---5--------6--4--------||---5--------6--3--------||
A|------6--3--------------||------6--3--------------||
E|------------------------||------------------------||
  1  +  2  +  3  +  4  +    1  +  2  +  3  +  4  +    
Другие материалы по этой песне:
  • Аккорды, текст

https://primanota.ru/charlie-parker/bird-feathers-chords.htm

Привет, гитарист!

Тебе подарок от сайта PrimaNota.ru

Забрать подарок
ВАМ ПОДАРКИ ОТ ПРОЕКТА
"ГИТАРНАЯ РЕВОЛЮЦИЯ"