Войти:  Facebook Google Twitter Vk Yandex Mail.ru
PrimaNota.ru - самый крупный в мире бесплатный архив песенных текстов, аккордов, табулатур и нот


Charlie Parker - Barbados - табы

Печатать
Поддержи лучшую metal-группу Петербурга!

Barbados

  • аккорды, текст
  • ноты

Авторы музыки: Charlie Parker

-------------------------------------------------------------------------------
                             Barbados - Charlie Parker
-------------------------------------------------------------------------------

  F                Gm7      C7      F                Cm7      F7
e|----------------|----------5---3-|--3-------------|----------------|
B|----------------|--------2-------|5---6-----3-----|------3-4-6-3---|
G|----5-2-----3---|5--2--3---------|------5-3---5-5-|--235---------5-|
D|3---------------|----------------|----------------|----------------|
A|----------------|----------------|----------------|----------------|
E|----------------|----------------|----------------|----------------|

  Bb7                               F                D7
e|----------------|----------------|----------------|----------------|
B|----------------|------------2---|----------------|----------------|
G|5---------------|----3-2-5-3---5-|------5-5-------|--5---2-3-2-5-3-|
D|--3-5-6-------3-|5-3-------------|----------------|----------------|
A|----------------|----------------|----------------|----------------|
E|----------------|----------------|----------------|----------------|

                                                    |----1st Ending--|
  Gm7              C7               F               | Gm7      C7    |
e|----------------|--5---------3---|----------------|----------------|
B|----------------|2---------------|----------------|----------------|
G|2-----2-5-----35|----------------|--------2-------|--------2-------|
D|--3-5-----------|----------------|--2-3-5---5-3-2-|--2-3-5---5-3-2-|
A|----------------|----------------|----------------|----------------|
E|----------------|----------------|----------------|----------------|

 |--2nd Ending----|
 |F               |
e|----------------|
B|----------------|
G|----------------|
D|3---------------|
A|----------------|
E|----------------|


   
Другие материалы по этой песне:

https://primanota.ru/charlie-parker/barbados-chords.htm

Привет, гитарист!

Тебе подарок от сайта PrimaNota.ru

Забрать подарок
ВАМ ПОДАРКИ ОТ ПРОЕКТА
"ГИТАРНАЯ РЕВОЛЮЦИЯ"