Войти:  Facebook Google Twitter Vk Yandex Mail.ru
PrimaNota.ru - самый крупный в мире бесплатный архив песенных текстов, аккордов, табулатур и нот


Chamberlain - Try For Thunder - табы

Печатать
Лучшая metal-группа Петербурга

Try For Thunder

  • аккорды, текст

Chamberlain - Try for Thunder
Tabbed by: nickelflip
E-mail: nickelflip@gmail.com
Tuning: Standard

This song is in the key of G major. 4/4. Email me if you have any corrections/additions and I'll be glad to
incorporate them and give you credit.

[Intro]

Riff A (x1) (The numbers on the bottom represent which fingers I use on my fret hand to hit the notes, from 
index finger, 1, to pinkie, 4)

  1 & 2 & 3 & 4   1 & 2 & 3 & 4   1 & 2 & 3 & 4   1 & 2 & 3 & 4 &
e|---------------------------------------------------------------------------|
B|--3-----3---------3-----3---------3-----3---------3-----5-3----------------|
G|----0-----0---------0-----0---------0-----0---------0-------0--------------|
D|------0-----4---5-----5-------------------------------0-------0------------|
A|5---------------------------5---3-----3------------------------------------|
E|--------------------------------------------2---3--------------------------|
  3 1         2   3           3   1 2         1   1 2     4 2

  1 & 2 & 3 & 4   1 & 2 & 3   4   1 & 2 & 3 & 4   1 & 2 & 3 & 4 &
e|---------------------------------------------------------------------------|
B|--3-----3---------3---------------3---------------3-----3------------------|
G|----0-----0---------0---------------0---------------0-----0---0------------|
D|------0-----4---5-----5-4-----------------------------0-----0--------------|
A|5---------------------------5---3-----3/5-3--------------------------------|
E|--------------------------------------------2---3--------------------------|
                                        1   1 1   1
  

[Verse 1]

Riff A (x2)

[Solo 1]

Rhythm Figure 1 (Guitar 1): (Remember, "s" means you slap the strings with the heel of your strumming hand to 
cut off the G chord and give it a percussive sound. "X" means you hold your fret hand lightly over all the 
strings without pressing down in order to mute them while continuing to strum)

(x4)

  1 & 2 & 3 & 4 & 1   2 & 3   4
e|0-0-X-X-X-X-X-3-3---s-3-3---s----------------------------------------------|
B|3-3-X-X-X-X-X-3-3---s-3-3---s----------------------------------------------|
G|0-0-X-X-X-X-X-0-0---s-0-0---s----------------------------------------------|
D|4-4-X-X-X-X-X-0-0---s-0-0---s----------------------------------------------|
A|5-5-X-X-X-X-X-2-2---s-2-2---s----------------------------------------------|
E|0-0-X-X-X-X-X-3-3---s-3-3---s----------------------------------------------|

Guitar 2:

  1               1   &  2  &       & 1 &     3 & 4 &       & a 3 
e|--------------------------------------10-----------------------------------|
B|8~~~~~~~~~~~~---10b12br10-8-------7/8-------8\7\5--------------------------|
G|--------------------------------------------------7-------7h9p7------------|
D|---------------------------------------------------------------------------|
A|---------------------------------------------------------------------------|
E|---------------------------------------------------------------------------|

  1               1  &   2  &       & 1 & 2 & 3 &  4 &       
e|---------------------------------------------------------------------------|
B|8~~~~~~~~~~~~---10b12br10-8-----------8------------------------------------|
G|----------------------------------7/9---9-7------9-7~~~~~~~~~~~~~~~~-------|
D|--------------------------------------------9-10---------------------------|
A|---------------------------------------------------------------------------|
E|---------------------------------------------------------------------------|

[Verse 2]

Riff A x2

[Chorus 1]

Rhythm Figure 1 x4

[Solo 2]

Guitar 1: Rhythm Figure 1 x2

Guitar 2: Note that there's a couple 32nd notes I've crammed in here--in the very beginning and then in the 
10p8 part.

  1e&            1   &   2 &       & 1 &     3   &a  4  &     & a  3
e|-------------------------------------10-----------------------------------|
B|888~~~~~~~~~---10b12br10-8-------7/8-------8--10p8------------------------|
G|---------------------------------------------------9--7-----7b9br7--------|
D|--------------------------------------------------------------------------|
A|--------------------------------------------------------------------------|
E|--------------------------------------------------------------------------|

[Verse 3]

Riff A x2

[Chorus 2]

Rhythm Figure 1 x7, then let an E minor ring for two full measures, like this:

   1 & 2 & 3 & 4 & 1 & 2 & 3 & 4 &
e|-0--------------------------------------------------------------------------|
B|-0--------------------------------------------------------------------------|
G|-0--------------------------------------------------------------------------|
D|-2--------------------------------------------------------------------------|
A|-2--------------------------------------------------------------------------|
E|-0--------------------------------------------------------------------------|

Then straight downstrokes on a C power chord for two measures.

   1 2 3 4 1 2 3 4
e|-X-X-X-X-X-X-X-X-------------------------------------------------------------------|
B|-X-X-X-X-X-X-X-X-------------------------------------------------------------------|
G|-5-5-5-5-5-5-5-5------------------------------------------------------------------|
D|-5-5-5-5-5-5-5-5-------------------------------------------------------------------|
A|-3-3-3-3-3-3-3-3-------------------------------------------------------------------|
E|-X-X-X-X-X-X-X-X-------------------------------------------------------------------|

[Solo 3]

   1     a 2   &   &   4   1     a 2   &       1  e  &  a   &   &   & 1 &  2 & 3 
e|-------------------------------------------------------------------------------|
B|-3/5---5-5---3---3h5p3---3/5---5-5---3-------10h12p10-12--10--8----------------|
G|-X/X---X-X---X---X-------X/X---X-X---X----------------------------7-9/11-9-7-7-|
D|-5/7---7-7---5---5-------5/7---7-7---5-----------------------------------------|
A|-------------------------------------------------------------------------------|
E|-------------------------------------------------------------------------------|
   1     a 2   &   &   4   1     a 2   &       1      3   &  4  & (1 & 2 & 3 & 4 &)
e|------------------------------------------------------------------------------|
B|-3/5---5-5---3---3h5p3---3/5---5-5---3-------8~~~~~~10b12br10-8~~~~~~~~~~~~~~~|
G|-X/X---X-X---X---X-------X/X---X-X---X----------------------------------------|
D|-5/7---7-7---5---5-------5/7---7-7---5----------------------------------------|
A|------------------------------------------------------------------------------|
E|------------------------------------------------------------------------------|

[Verse 4]

Riff A x2

[Chorus 3]

Strum these chords in the rhythm notated at the top. Repeat for a total of 4 times. On the fourth time, let
the G chord ring for the full measure.
   
   1   2 & 3 & 4 & 1   2 &   & 4 &
e|-X---------------3-----------------------------------------------------------|
B|-1---------------3-----------------------------------------------------------|
G|-X---------------0-----------------------------------------------------------|
D|-4---------------0-----------------------------------------------------------|
A|-5---------------2-----------------------------------------------------------|
E|-5---------------3-----------------------------------------------------------|

Rhythm figure 1 x8, then:

   1     a 2   &   &   4   1     a 2   &   &   4       
e|-------------------------------------------------------------------------------|
B|-3/5---5-5---3---3h5p3---3/5---5-5---3---3h5p5---------------------------------|
G|-X/X---X-X---X---X-------X/X---X-X---X---X-------------------------------------|
D|-5/7---7-7---5---5-------5/7---7-7---5---5-------------------------------------|
A|-------------------------------------------------------------------------------|
E|-------------------------------------------------------------------------------|

   1     a 2   &   &   4   1     a (2) &   &   &       
e|-------------------------------------------------------------------------------|
B|-3/5---5-5---3---3h5p3---3\1---1-----0---1---3---------------------------------|
G|-X/X---X-X---X---X-------X\X---X-----X---X---X---------------------------------|
D|-5/7---7-7---5---5-------5\3---3-----2---3---5---------------------------------|
A|-------------------------------------------------------------------------------|
E|-------------------------------------------------------------------------------|

   1     a 2   &   &   4   1     a 2   &       1 (& 2 & 3 & 4 & 1 & 2 & 3 & 4)
e|---------------------------------------------0--------------------------------|
B|-3/5---5-5---3---3h5p3---3/5---5-5---3-------0--------------------------------|
G|-X/X---X-X---X---X-------X/X---X-X---X-------0--------------------------------|
D|-5/7---7-7---5---5-------5/7---7-7---5-------2--------------------------------|
A|---------------------------------------------2--------------------------------|
E|---------------------------------------------0--------------------------------|

And here's the last two chords... strum the final G chord slowly, one string at a time.

   & 1 (& 2 & 3 & 4 & 1 & 2 & 3 & 4 &) 1 (& 2 & 3 & 4 & 1 & 2 & 3 & 4 &)
e|-------------------------------------3-----------------------------------------|
B|-------------------------------------3-----------------------------------------|
G|-5-5---------------------------------0-----------------------------------------|
D|-5-5---------------------------------0-----------------------------------------|
A|-3-3---------------------------------2-----------------------------------------|
E|-------------------------------------3-----------------------------------------|


************************************

| x   Dead note
| h   Hammer-on
| p   Pull-off
| b   Bend
| br  Bend release
| /   Slide up
| \   Slide down
| ~   Vibrato
| s   Slap

************************************   
https://primanota.ru/chamberlain/try-for-thunder-chords.htm

Привет, гитарист!

Тебе подарок от сайта PrimaNota.ru

Забрать подарок
ВАМ ПОДАРКИ ОТ ПРОЕКТА
"ГИТАРНАЯ РЕВОЛЮЦИЯ"