» 
 » 
Ghosts



Celldweller - Ghosts - табы

Бесплатный вокальный онлайн-квест VOX7
-------------------------------------------------------------------------------
                             ghosts -celldweller
-------------------------------------------------------------------------------
Tabbed by:
E-mail:

Tuning:drop B(B F# B e g# c#)

intro and chorus
e|---------------------------------------------------------------------------|
B|---------------------------------------------------------------------------|
G|---------------------------------------------------------------------------|
D|---------------------------------------------------------------------------|
A|---------------------------------------------------------------------------|
E|-0-0-0-1--1-1/3--3-3/5--5-5--0-0-0-1--1/3--3-3/6--6-6----------------------|X2

Fill
e|---------------------------------------------------------------------------|
B|---------------------------------------------------------------------------|
G|---------------------------------------------------------------------------|
D|--0------------------------------------------------------------------------|
A|--0------------------------------------------------------------------------|
E|--0------------------------------------------------------------------------|X4

Bridge
e|---------------------------------------------------------------------------|
B|---------------------------------------------------------------------------|
G|---------------------------------------------------------------------------|
D|---------------------------------------------------------------------------|
A|-0-0-0h1-0-0h1-0h1-0-0h1-0-------------------------------------------------|
E|-0-0-0h1-0-0h1-0h1-0-0h1-0-------------------------------------------------|X8


************************************

| /   slide up
| \   slide down
| h   hammer-on
| p   pull-off
| ~   vibrato
| +   harmonic
| x   Mute note
| b   Bend
| pb  Pre-bend
| br  Bend release
| pbr Pre-bend release
| brb Bend release bend

************************************   

Celldweller - Ghosts - ноты

(включить)
Другие композиции этого автора:
Другие материалы по этой песне:
  • Аккорды, текст

https://primanota.ru/celldweller/ghosts-chords.htm

Привет, гитарист!

Тебе подарок от сайта PrimaNota.ru

Забрать подарок
ВАМ ПОДАРКИ ОТ ПРОЕКТА
"ГИТАРНАЯ РЕВОЛЮЦИЯ"