PrimaNota.ru - самый крупный в мире бесплатный архив песенных текстов, аккордов, табулатур и нот


Carole King - You Light Up My Life - текст песни, бас-таба, видео

Регистрация Запомнить меня
Войти через:  Facebook Google Twitter Vk Yandex Mail.ru

Carole King - You Light Up My Life - текст песни, бас-таба, видео

Печатать
Просмотров: 147
Лучшая metal-группа Петербурга
  [Verse]
G|----------------|----------------|----------------|----------------|
D|3-----3-3-----3-|3-----3-3-----3-|----------------|----------------|
A|----------------|----------------|1-----1-1-----1-|1-----1-1-----1-|
E|----------------|----------------|----------------|----------------|

G|----------------|----------------|----------------|----------------|
D|3-----3-3-----3-|3-----3-3-----3-|----------------|----------3-----|
A|----------------|----------------|1-----1-1-----1-|1-----1-1-------|
E|----------------|----------------|----------------|----------------|

G|----------------|1-----1-1-----1-|0-----0-0-----0-|1-----1---------|
D|----------------|----------------|----------------|--------1-----1-|
A|3-----3-3-----3-|----------------|----------------|----------------|
E|----------------|----------------|----------------|----------------|

  [Chorus]
G|----------------|----------------|
D|3-----3-3-----3-|3-----3---------|
A|----------------|--------1-----1-|
E|----------------|----------------|

G|----------------|----------------|----------------|------------|
D|------1---------|--1-------------|--1-----------1-|----------1-|
A|------------1---|------------1---|--------1-------|----1-------|
E|----------------|----------------|----------------|------------|

  [Verse]
G|----------------|----------------|----------------|----------------|
D|3-----3-3-----3-|3-----3-3-----3-|----------------|----------------|
A|----------------|----------------|1-----1-1-----1-|1-----1-1-----1-|
E|----------------|----------------|----------------|----------------|

G|----------------|----------------|----------------|----------------|
D|3-----3-3-----3-|3-----3-3-----3-|----------------|----------------|
A|----------------|----------------|1-----1-1-----1-|1-----1-1-------|
E|----------------|----------------|----------------|----------3-----|

G|----------------|1-----1-1-----1-|0-----0-0-----0-|1-----1---------|
D|----------------|----------------|----------------|--------1-----1-|
A|3-----3-3-----3-|----------------|----------------|----------------|
E|----------------|----------------|----------------|----------------|

  [Chorus]
G|----------------|----------------|
D|3-----3-3-----3-|3-----3---------|
A|----------------|--------1-----1-|
E|----------------|----------------|

G|----------------|----------------|----------------|------------|
D|------1---------|--1-------------|--1-----------0-|----------1-|
A|------------1---|------------1---|--------1-------|----1-------|
E|----------------|----------------|----------------|------------|

  [Bridge]
G|----------------|----------------|----------------|----------------|
D|0-----0---------|0-----0---------|----------------|--------3-----3-|
A|--------0-----0-|----------------|3-----3-3-----3-|3-----3---------|
E|----------------|--------3-----3-|----------------|----------------|

G|----------------|----------------|----------------|----------------|
D|----------------|----------------|----------------|1-----1-3-----3-|
A|----------------|----------------|3-----3-3-----3-|----------------|
E|3-----3-3-----3-|3-----3-3-----3-|----------------|----------------|

G|----------------|----------------|----------------|----------------|
D|3-----3-3-----3-|3-----3-3-----3-|3-----3-3-----3-|----------------|
A|----------------|----------------|----------------|1-----1-1-----1-|
E|----------------|----------------|----------------|----------------|
                                                             
G|----------------|----------------|----------------|----------------|
D|3-----3-3-----3-|3-----3-3-----3-|3-----3-3-----3-|----------------|
A|----------------|----------------|----------------|1-----1-1-----1-|
E|----------------|----------------|----------------|----------------|

    Never          Feel             Lovin            to      yeah 
G|----------------|1-----1-1-----1-|----------------|1-----1-1-----1-|
D|1-----1---------|----------------|0-----0-0-----0-|----------------|
A|--------3-----3-|----------------|----------------|----------------|
E|----------------|----------------|----------------|----------------|

 [Outro]
    You   light life you         faith    hope  love   light
G|----------------|----------------|----------------|----------------|
D|3-----3-3-----3-|3-----3---------|------1---------|--1-------------|
A|----------------|--------1-----1-|------------1---|------------1---|
E|----------------|----------------|----------------|----------------|
  
G|----------------|----------------|----------------|
D|--1-----------1-|------------1---|----------------|
A|--------1-------|------1---------|--1-----1-------|
E|----------------|----------------|----------------|
Добавлено: 20.03.2018
Другие материалы по этой песне:
  • Аккорды и текст

Страница создана 06.05.2012
https://primanota.ru/carole-king/you-light-up-my-life-chords.htm
Привет, Гость.
Предлагаем пройти революционный курс по гитаре.
Подарок от PrimaNota.Ru, забирай!