PrimaNota.ru - самый крупный в мире бесплатный архив песенных текстов, аккордов, табулатур и нот


Carole King - So Many Ways - текст песни, бас-таба, видео

Регистрация Запомнить меня
Войти через:  Facebook Google Twitter Vk Yandex Mail.ru

Carole King - So Many Ways - текст песни, бас-таба, видео

Печатать
Просмотров: 146
Лучшая metal-группа Петербурга
  [Intro] [Slowly]
G|----------------|----------------|
D|0---------------|----------------|
A|----------------|----------------|
E|----------------|----------------|

  [Chorus]
      So                     So               to     love  
G|----------------|----------------|----------------|----------------|
D|0---------------|2---------------|----------------|----------------|
A|----------------|----------------|----------------|0-------0-------|
E|----------------|----------------|2-------3-------|----------------|

    So    ways     so  ways         show    care
G|----------------|----------------|----------------|----------------|
D|----------------|----------------|2-------2-------|----------------|
A|2-------2---0---|----------------|----------------|0-------0---0---|
E|----------------|3-----3-2-------|----------------|----------------|

  [Verse]  
      We      much common        al-though  places a-part          When 
G|----------------|----------------|----------------|----------------|
D|0-------0-------|0-----0-0-0---0-|----------------|0-----0-0-----0-|
A|----------------|----------------|--------1-------|----------------|
E|----------------|----------------|3---------------|----------------|

  you out touch      with  word   I love          You   ful  
G|----------------|----------------|----------------|----------------|
D|----------------|----------------|0-----0-0---0---|0-----0-0---0---|
A|0-----0-0-----0-|0-----0-0-----0-|----------------|----------------|
E|----------------|----------------|----------------|----------------|

  you are in  my   heart            
G|----------------|----------------|
D|----------------|----------------|
A|----------------|0---0---0---0---|
E|3-------3-------|----------------|

  [Chorus]    So             So               to     love  
G|----------------|----------------|----------------|----------------|
D|0---------------|2---------------|----------------|----------------|
A|----------------|----------------|----------------|0-------0-------|
E|----------------|----------------|2-------3-------|----------------|

    So    ways     so  ways         show    care
G|----------------|----------------|----------------|----------------|
D|----------------|----------------|2-------2-------|----------------|
A|2-------2---0---|----------------|----------------|0-------0---0-0-|
E|----------------|3-----3-2-------|----------------|----------------|

  [Verse]
G|----------------|----------------|----------------|----------------|
D|----------------|----------------|----------------|0-----------4---|
A|2---2---2---0---|----------------|--------0-------|--------4-------|
E|----------------|3---3---3---2---|0---------------|----------------|

G|----------------|----------------|----------------|----------------|
D|----------------|2---2---2---2---|----------------|----------------|
A|2---2---2---2---|----------------|0---0---0---0---|0---0---0---0-0-|
E|----------------|----------------|----------------|----------------|

  [Chorus]
G|----------------|----------------|----------------|----------------|
D|0-----0-0-----0-|2-----2-2-----2-|----------------|----------------|
A|----------------|----------------|----------------|0-----0-0-----0-|
E|----------------|----------------|2-----2-3-----3-|----------------|

G|----------------|----------------|----------------|----------------|
D|----------------|----------------|----------------|----------------|
A|2-----2-0-----0-|----------------|----------------|0-----0-0---0---|
E|----------------|3-----3-2-----2-|0-----0-0-----0-|----------------|

G|----------------|
D|0---------------|
A|----------------|
E|----------------|

  [Ending]
G|----------------|----------------|----------------|----------------|
D|----------------|----------------|0-------0-------|----------------|
A|--------0-------|----------------|------------0---|2-----------0---|
E|0---------------|2-------3-------|----------------|----------------|

G|----------------|----------------|----------------|----------------|
D|----------------|----------------|----------------|0---------------|
A|----------------|--------0-------|0-------0-------|----------------|
E|3-------2-------|0---------------|----------------|----------------|

Key of D Major. 
Добавлено: 20.03.2018
Другие материалы по этой песне:
  • Аккорды и текст

Страница создана 21.03.2012
https://primanota.ru/carole-king/so-many-ways-chords.htm
Привет, Гость.
Предлагаем пройти революционный курс по гитаре.
Подарок от PrimaNota.Ru, забирай!