Войти:  Facebook Google Twitter Vk Yandex Mail.ru
PrimaNota.ru - самый крупный в мире бесплатный архив песенных текстов, аккордов, табулатур и нот


Carole King - Morning Sun - текст песни, бас-таба, видео

Печатать
Просмотров: 213
Лучшая metal-группа Петербурга

Morning Sun

  • аккорды и текст

  [Intro]
G|----------------|----------------|----------------|----------------|
D|----------------|----------------|----------------|----------------|
A|----------------|----------------|0-----------0---|0---------------|
E|0-----------0---|0-----------3---|----------------|------------3---|

G|----------------|----------------|----------------|----------------|
D|----------------|----------------|----------------|----------------|
A|----------------|----------------|0-----------0---|0---------------|
E|0-----------0---|0-----------3---|----------------|------------3---|

  [Verse]
G|----------------|----------------|----------------|----------------|
D|----------------|----------------|----------------|----------------|
A|----------------|----------------|0-----------0---|0---------------|
E|0-----------0---|0-----------3---|----------------|------------3---|

G|----------------|----------------|----------------|----------------|
D|----------------|----------------|----------------|----------------|
A|----------------|----------------|0-----------0---|0-----------0---|
E|0-----------0---|0-----------3---|----------------|----------------|

G|----------------|----------------|----------------|----------------|
D|----------------|0---------------|----------------|----------------|
A|0-----------3---|------------3---|------------0---|2-----------2---|
E|----------------|----------------|3---------------|----------------|

G|----------------|----------------|----------------|----------------|
D|----------------|----------------|----------------|----------------|
A|3-----------3---|3-----------3---|2-----------2---|2---------------|
E|----------------|----------------|----------------|------------3---|

  [Verse]
G|----------------|----------------|----------------|----------------|
D|----------------|----------------|----------------|----------------|
A|----------------|----------------|0-----------0---|0---------------|
E|0-----------0---|0-----------3---|----------------|------------3---|

G|----------------|----------------|----------------|----------------|
D|----------------|----------------|----------------|----------------|
A|----------------|----------------|0-----------0---|0-----------0---|
E|0-----------0---|0-----------3---|----------------|----------------|

G|----------------|----------------|----------------|----------------|
D|----------------|0---------------|----------------|----------------|
A|0-----------3---|------------3---|------------0---|2-----------2---|
E|----------------|----------------|3---------------|----------------|

G|----------------|----------------|----------------|----------------|
D|----------------|----------------|----------------|----------------|
A|3-----------3---|3-----------3---|2-----------2---|2---------------|
E|----------------|----------------|----------------|------------3---|

  [Chorus]
G|----------------|----------------|----------------|----------------|
D|----------------|----------------|----------------|----------------|
A|----------------|----------------|----------------|0---------------|
E|0-----------0---|0-----------0---|0-----------3---|----3---0---0---|

G|----------------|----------------|----------------|----------------|
D|----------------|----------------|----------------|----------------|
A|----------------|0---------------|----------------|----------------|
E|0-----------3---|----3---0---0---|0---0---2---2---|0-----------3---|

G|----------------|----------------|----------------|----------------|
D|----------------|----------------|----------------|----------------|
A|0-----------0---|2-----------2---|3-----------3---|2-----------2---|
E|----------------|----------------|----------------|----------------|

G|----------------|----------------|----------------|----------------|
D|----------------|----------------|----------------|----------------|
A|3-----------3---|3-----------3---|2-----------2---|2---------------|
E|----------------|----------------|----------------|------------3---|

G|----------------|----------------|----------------|----------------|
D|----------------|----------------|----------------|----------------|
A|----------------|----------------|----------------|----------------|
E|0-----------0---|0-----------0---|0-----------0---|0-------0---3---|

  [Bridge]
G|----------------|----------------|----------------|----------------|
D|----------------|0---------------|----------------|----------------|
A|0-----------3---|------------3---|------------0---|2-----------2---|
E|----------------|----------------|3---------------|----------------|

G|----------------|----------------|----------------|----------------|
D|----------------|0---------------|----------------|----------------|
A|3-----------3---|------------3---|------------0---|2-----------2---|
E|----------------|----------------|3---------------|----------------|

G|----------------|----------------|----------------|----------------|
D|----------------|0---------------|----------------|----------------|
A|0-----------3---|------------3---|------------0---|2-----------2---|
E|----------------|----------------|3---------------|----------------|

G|----------------|----------------|----------------|----------------|
D|----------------|----------------|----------------|----------------|
A|3-----------2---|0-----------0---|2-----------2---|2---------------|
E|----------------|----------------|----------------|------------3---|

  [Verse]
G|----------------|----------------|----------------|----------------|
D|----------------|----------------|----------------|----------------|
A|----------------|----------------|0-----------0---|0---------------|
E|0-----------0---|0-----------3---|----------------|------------3---|

G|----------------|----------------|----------------|----------------|
D|----------------|----------------|----------------|----------------|
A|----------------|----------------|0-----------0---|0-----------0---|
E|0-----------0---|0-----------3---|----------------|----------------|

G|----------------|----------------|----------------|----------------|
D|----------------|0---------------|----------------|----------------|
A|0-----------3---|------------3---|------------0---|2-----------2---|
E|----------------|----------------|3---------------|----------------|

G|----------------|----------------|----------------|----------------|
D|----------------|----------------|----------------|----------------|
A|0-----------0---|2-----------2---|3-----------3---|2-----------2---|
E|----------------|----------------|----------------|----------------|
 
  [Chorus]
G|----------------|----------------|----------------|----------------|
D|----------------|----------------|----------------|----------------|
A|----------------|----------------|----------------|0---------------|
E|0-----------0---|0-----------0---|0-----------3---|----3---0---0---|

G|----------------|----------------|----------------|----------------|
D|----------------|----------------|----------------|----------------|
A|----------------|0---------------|----------------|----------------|
E|0-----------3---|----3---0---0---|0---0---2---2---|0-----------3---|

G|----------------|----------------|----------------|----------------|
D|----------------|----------------|----------------|----------------|
A|0-----------0---|2-----------2---|3-----------3---|2-----------2---|
E|----------------|----------------|----------------|----------------|

G|----------------|----------------|----------------|----------------|
D|----------------|----------------|----------------|----------------|
A|3-----------3---|3-----------3---|2-----------2---|2---------------|
E|----------------|----------------|----------------|------------3---|

G|----------------|----------------|----------------|----------------|
D|----------------|----------------|----------------|----------------|
A|----------------|----------------|----------------|----------------|
E|0-----------0---|0-----------0---|0-----------0---|0-------0---3---|

  [Bridge]
G|----------------|----------------|----------------|----------------|
D|----------------|0---------------|----------------|----------------|
A|0-----------3---|------------3---|------------0---|2-----------2---|
E|----------------|----------------|3---------------|----------------|

G|----------------|----------------|----------------|----------------|
D|----------------|----------------|----------------|----------------|
A|3-----------2---|0-----------0---|2-----------2---|2---------------|
E|----------------|----------------|----------------|------------3---|

G|----------------|----------------|----------------|----------------|
D|----------------|----------------|----------------|----------------|
A|----------------|----------------|0-----------0---|0-----------2---|
E|0-----------0---|0-----------3---|----------------|----------------|

G|----------------|----------------|----------------|----------------|
D|----------------|----------------|----------------|----------------|
A|3-----------3---|3-----------3---|2-----------2---|2---------------|
E|----------------|----------------|----------------|------------3---|

  [Outro]
G|----------------|----------------|----------------|----------------|
D|----------------|----------------|----------------|----------------|
A|----------------|----------------|0-----------0---|0---------------|
E|0-----------0---|0-----------3---|----------------|------------3---|
  Keep repeating the above 4 bars
Добавлено: 20.03.2018
Другие материалы по этой песне:
  • Аккорды и текст

Страница создана 18.03.2012
https://primanota.ru/carole-king/morning-sun-chords.htm

Привет, гитарист!

Тебе подарок от сайта PrimaNota.ru

Забрать подарок
ВАМ ПОДАРКИ ОТ ПРОЕКТА
"ГИТАРНАЯ РЕВОЛЮЦИЯ"