PrimaNota.ru - самый крупный в мире бесплатный архив песенных текстов, аккордов, табулатур и нот


Carole King - He's A Bad Boy - текст песни, бас-таба, видео

Регистрация Запомнить меня
Войти через:  Facebook Google Twitter Vk Yandex Mail.ru

Carole King - He's A Bad Boy - текст песни, бас-таба, видео

Печатать
Просмотров: 182
Лучшая metal-группа Петербурга
  [Intro]
G|----------------|----------------|----------------|----------------|
D|0-----------0---|0-----------0---|2-----------2---|2-----------2---|
A|----------------|----------------|----------------|----------------|
E|----------------|----------------|----------------|----------------|

G|----------------|----------------|----------------|----------------|
D|0-----------0---|0-----------0---|0---------------|----------------|
A|----------------|----------------|----------------|0-----------0---|
E|----------------|----------------|--------3-------|----------------|

G|----------------|----------------|----------------|
D|----------------|0-----------0---|0-----------0---|
A|0-----------3---|----------------|----------------|
E|----------------|----------------|----------------|

  [Verse]
G|----------------|----------------|----------------|----------------|
D|0-----------0---|0-----------0---|0-----------0---|0-----------0---|
A|----------------|----------------|----------------|----------------|
E|----------------|----------------|----------------|----------------|

G|----------------|----------------|----------------|----------------|
D|2-----------2---|2-----------2---|0-----------0---|0---------------|
A|----------------|----------------|----------------|------------3---|
E|----------------|----------------|----------------|----------------|

  [Chorus]
G|----------------|----------------|----------------|----------------|
D|----------------|----------------|0-----------0---|0-----------0---|
A|0---------------|0-----------3---|----------------|----------------|
E|------------3---|----------------|----------------|----------------|

G|----------------|
D|0-----------0---|
A|----------------|
E|----------------|

  [Verse]
G|----------------|----------------|----------------|----------------|
D|0-----------0---|0-----------0---|0-----------0---|0----------0----|
A|----------------|----------------|----------------|----------------|
E|----------------|----------------|----------------|----------------|

G|----------------|----------------|----------------|----------------|
D|2-----------2---|2-----------0---|0-----------0---|0---------------|
A|----------------|----------------|----------------|-----------0----|
E|----------------|----------------|----------------|----------------|

  [Chorus]
G|----------------|----------------|----------------|----------------|
D|----------------|----------------|----------------|0-----------0---|
A|----------------|0-----------0---|0-----------3---|----------------|
E|0-----------3---|----------------|----------------|----------------|

G|----------------|
D|0-----------0---|
A|----------------|
E|----------------|

  [Verse]
G|----------------|----------------|----------------|----------------|
D|0-----------0---|0-----------0---|0-----------0---|0---------------|
A|----------------|----------------|----------------|------------3---|
E|----------------|----------------|----------------|----------------|

G|----------------|----------------|----------------|----------------|
D|----------------|0-----------0---|0-----------0---|0---------------|
A|0-----------3---|----------------|----------------|------------3---|
E|----------------|----------------|----------------|----------------|

  [Chorus]
G|----------------|----------------|----------------|----------------|
D|----------------|----------------|0-----------0---|0-----------0---|
A|0-----------0---|0----------3----|----------------|----------------|
E|----------------|----------------|----------------|----------------|

  [Break]
G|----------------|----------------|----------------|----------------|
D|0-----------0---|0-----------0---|0-----------0---|0-----------0---|
A|----------------|----------------|----------------|----------------|
E|----------------|----------------|----------------|----------------|

G|----------------|----------------|----------------|----------------|
D|2-----------2---|2-----------2---|0-----------0---|0-----------0---|
A|----------------|----------------|----------------|----------------|
E|----------------|----------------|----------------|----------------|

G|----------------|----------------|----------------|----------------|
D|0---------------|----------------|----------------|----------------|
A|----------------|0-----------0---|0-----------0---|0-----------3---|
E|-------3--------|----------------|----------------|----------------|

G|----------------|----------------|----------------|
D|0---------------|0---------------|0-----------0---|
A|----------------|----------------|----------------|
E|----------------|----------------|----------------|

  [Verse]
G|----------------|----------------|----------------|----------------|
D|0-----------0---|0-----------0---|0-----------0---|0-----------0---|
A|----------------|----------------|----------------|----------------|
E|----------------|----------------|----------------|----------------|

G|----------------|----------------|----------------|----------------|
D|2-----------2---|2-----------2---|0-----------0---|0-----------0---|
A|----------------|----------------|----------------|----------------|
E|----------------|----------------|----------------|----------------|
  
  [Outro]
G|----------------|----------------|----------------|----------------|
D|0---------------|0---------------|----------------|----------------|
A|----------------|----------------|0-----------3---|0---------------|
E|------------3---|------------3---|----------------|------------3---|

G|----------------|----------------|----------------|----------------|
D|----------------|0-----------0---|0-----------0---|0-----------0---|
A|0---------------|----------------|----------------|----------------|
E|------------3---|----------------|----------------|----------------|

G|----------------|----------------|----------------|----------------|
D|0-----------0---|0-----------0---|0-----------0---|0-----------0---|
A|----------------|----------------|----------------|----------------|
E|----------------|----------------|----------------|----------------|
Добавлено: 20.03.2018
Другие материалы по этой песне:
  • Аккорды и текст

Страница создана 15.05.2012
https://primanota.ru/carole-king/hes-a-bad-boy-chords.htm
Привет, Гость.
Предлагаем пройти революционный курс по гитаре.
Подарок от PrimaNota.Ru, забирай!