PrimaNota.ru - самый крупный в мире бесплатный архив песенных текстов, аккордов, табулатур и нот


Cardigans - Hanging Around - аккорды и текст, бас-таба, видео

Регистрация Запомнить меня
Войти через:  Facebook Google Twitter Vk Yandex Mail.ru

Cardigans - Hanging Around - аккорды и текст, бас-таба, видео

Печатать
Просмотров: 570
Лучшая metal-группа Петербурга
Авторы музыки: Peter Svensson
Авторы текста: Peter Svensson, Nina Persson
Hanging Around
Cardigans
Define chords 
(somebody work out the correct names, i'm self taught , and don't know shit)
 
    Eb5  Eb-  Abm  B5  Db5 | Esus  B   C   G     | Ebsus Bb F# Bbsus
e|--x----x----x-----x---x---|-7-----7---8---3-----|-6-----6--2--2---|
B|--x----x----x-----x---x---|-7-----7---8---3-----|-6-----6--2--2---|
G|--8----8----4-----4---6---|-9-----8---9---4-----|-8-----7--3--4---|
D|--8----7----6-----4---6---|-9-----9---10--5-----|-8-----8--4--4---| 
A|--6----6----6-----2---4---|-7-----9---10--5-----|-6-----8--4--2---|
E|--6----6----4-----2---4---|-7-----7---8---3-----|-6-----6--2--2---|
 [Verse chords]              [1st half chorus]     [2nd half chorus]
 
[Intro] part                    ||[Verse] part
e|------------------------------||-----------------------------------|
B|-7-----7-----6----6-----------||-12-----12-----11------------------|
G|---10----10----8----8---------||----15-----15-----13--13-11-10-----|
D|------------------------------||-----------------------------------| 
A|------------------------------||-----------------------------------|
E|------------------------------||-----------------------------------|
 
[Intro] Eb5 ////// Eb- //////
 
[Verse 1]
Eb5                       Eb-                            Abm  B5 
I wonder what it's like / seeing through your eyes
    Db5                       B5                        Eb5  Eb-
you've offered me to have a try / but I was always late
Eb5                       Eb-                            Abm  B5 
the filter's that I use / give me an excuse
    Db5                       B5                        Eb5  Eb-
I take away what's real / I feel it and it blows my fuse
 
[Chorus]
Esus B     C         G     Esus        B            C       G    
I hang around / for another round / I'm hanging around / for another round
Ebsus       Bb          B        F#     Ebsus   Bb          B       F#
I'm hanging on / to the same old song / I hang around / for another round
Dbsus   Bbsus
until something stops me
 
[Verse 2]
I wonder what it's like / walking by your side
to think before I talk / and to move at the same speed as you walk
I want to have a weight / to keep me in your state
I'm watching from above / I love it but it's not for me
 
[Chorus]
Esus B     C         G     Esus        B            C       G    
I hang around / for another round / I'm hanging around / for another round
Ebsus       Bb          B        F#     Ebsus   Bb          B       F#
I'm hanging on / to the same old song / I hang around / for another round
Dbsus   Bbsus
until something stops me
 
[Instrumental]
Ebsus  Bb B
Добавлено: 15.12.2017
Другие материалы по этой песне:

Страница создана 29.02.2012
https://primanota.ru/cardigans/hanging-around-chords.htm
Привет, Гость.
Предлагаем пройти революционный курс по гитаре.
Подарок от PrimaNota.Ru, забирай!