Войти:  Facebook Google Twitter Vk Yandex Mail.ru
PrimaNota.ru - самый крупный в мире бесплатный архив песенных текстов, аккордов, табулатур и нот


Caravan Palace - Lazy Place - табы

Печатать
Лучшая metal-группа Петербурга

Lazy Place

  • аккорды, текст

[Intro]

e|-----------------------------------------------------------8-8-7-----------------|
B|----------8----------------8----------------8------------------------------------|
G|--------9---9----------------9----------------7----------------------------------|
D|------9-------9----------9-----9----------9-----9--------------------------------|
A|----7-----------7------7---------7------7---------7------------------------------|
E|--7------------------7----------------7------------------------------------------|

[main riff]

e|--7---7-------/77------7---------10-7-10-7--78-10-8-7----------------------|
B|----8---8-(8)-----10-8---10-8----------------------------------------------|
G|---------------------------------------------------------------------------|
D|---------------------------------------------------------------------------|
A|---------------------------------------------------------------------------|
E|---------------------------------------------------------------------------|

[chorus]

e|---------------------------------------------------------------------------|
B|---------------------------------------------------------------------------|
G|--7-7-7-7--9-9-9-9---------------------------------------------------------|
D|--7-7-7-7--9-9-9-9--9-9-9-9--7-7-7-7---------------------------------------|
A|--5-5-5-5--7-7-7-7--9-9-9-9--7-7-7-7---------------------------------------|
E|--5-5-5-5--7-7-7-7--7-7-7-7--5-5-5-5---------------------------------------|   
https://primanota.ru/caravan-palace/lazy-place-chords.htm

Привет, гитарист!

Тебе подарок от сайта PrimaNota.ru

Забрать подарок
ВАМ ПОДАРКИ ОТ ПРОЕКТА
"ГИТАРНАЯ РЕВОЛЮЦИЯ"