Войти:  Facebook Google Twitter Vk Yandex Mail.ru
PrimaNota.ru - самый крупный в мире бесплатный архив песенных текстов, аккордов, табулатур и нот


Caravan Palace - Beatophone - бас-таба

Печатать
Лучшая metal-группа Петербурга

Beatophone

  • аккорды, текст

Авторы музыки: Charles Delaporte, Arnaud de Bosredon Combrailles, Antoine Toustou, Hugues Payen de La Garanderie

-------------------------------------------------------------------------------
                             Caraval Palace - Beatophone
-------------------------------------------------------------------------------
Tabbed by: Granlie
E-mail: jkjacobs13@gmail.com

Tuning: Standard

G|---------1-1----|x4
D|-3-3---3-----3--|
A|-----3---------3|
E|----------------|

G|-------------------------1-1----|x6
D|-1-1---1-2-2---2-3-3---3-----3--|
A|-----3-------3-------3---------3|
E|--------------------------------|

|Artist: Caravan Palace
|Song: Beatophone
|Tablature Written by: Jeremy Jacobs.©
|©Copy Written
===============================================================================   
Другие материалы по этой песне:
  • Аккорды, текст

https://primanota.ru/caravan-palace/beatophone-chords.htm

Привет, гитарист!

Тебе подарок от сайта PrimaNota.ru

Забрать подарок
ВАМ ПОДАРКИ ОТ ПРОЕКТА
"ГИТАРНАЯ РЕВОЛЮЦИЯ"