Войти:  Facebook Google Twitter Vk Yandex Mail.ru
PrimaNota.ru - самый крупный в мире бесплатный архив песенных текстов, аккордов, табулатур и нот


Busker Busker - First Love - табы, видео

Печатать
Лучшая metal-группа Петербурга

First Love

  • аккорды и текст

e|---------------------------------------------------------------------------|
B|---------------------------------------------------------------------------|
G|------5-4---5-4------5-4---------------------------------------------------|
D|1s3-------5-----5--------5s7-7---------------------------------------------|
A|------------------7------------0-------------------------------------------|
E|---------------------------------------------------------------------------|

e|----------15--------15-----------------15-----------------------------|
B|------------17--------17----------------------------------------------|
G|12h14---------16---------16----16-16-16---16-16h17--------------------|
D|----------------------------------------------------------------------|
A|----------------------------------------------------------------------|
E|----------------------------------------------------------------------|
Добавлено: 14.12.2017
Другие материалы по этой песне:
  • Аккорды и текст

Страница создана 14.12.2017
https://primanota.ru/busker-busker/first-love-chords.htm

Привет, гитарист!

Тебе подарок от сайта PrimaNota.ru

Забрать подарок
ВАМ ПОДАРКИ ОТ ПРОЕКТА
"ГИТАРНАЯ РЕВОЛЮЦИЯ"