Войти:  Facebook Google Twitter Vk Yandex Mail.ru
PrimaNota.ru - самый крупный в мире бесплатный архив песенных текстов, аккордов, табулатур и нот


Бумбокс - Синяя рыжая девочка - аккорды, текст

Печатать
ViraMusic 2019 в Петербурге 4 апреля 2019! Скидка 10%!

Смотреть аккорды, текст "Синяя рыжая девочка"

Вариант
Тональность: 
0
Проще! Аппликатуры

Синяя рыжая девочка
Бумбокс
-проигрыш-

e-------------4..x-x-..x-x...x-x..x-----x--x..-x..--x-----
h-------------5..5-5..-5-5..4-7..5-----4..-5..7..--4...---
g---3-4-3----4..4-3..-3-4..6-6..6-----4..-4..4..--4...---
d-6--------6-6..5-5..-5-5..-5-5..5----4..-6..-6..--4...---
a-------------4..4-4..-4-4..-6-6..6----x..-x..-x..--x...---
e-------------4..x-x-..x-x..-x-x..-x--4----x..-x..--4...---

----------------------------------------6-4----------
-----------5..-5-5--5..5-4--4.------4------4-------
--3-4-3---4..-4-4--4..4-4--4.----4----------4...---
-6------6-6..-6-6--5..5--5--4.----------------------
-----------4..-------x..x-x---x.---------------
-----------x..-------x..x-x---x.---------
 

        
Abm7...............   Dbm7                  
      Я иду по проспекту   
 Eb7(+7)            Eb7        Abm7              
               Мне фонарики светят   
Eb7(+9)  Abm7
Птички поют                           
    Abm7 Abm7(9) Abm7        Dbm7  Eb7(+7)
Поют      не          сут домой смекту
Eb7                    Abm7     Eb7(+9)  Abm7
   Из отдела в магазе «семья и        уют»  
Abm7 Abm7(9) Abm7 Dbm7
Настрое           ние - бомба
Eb7(+7)               Abm7 Eb7(+9) Abm7
По всему видать - скоро    вес    на
Abm7             Dbm7 Eb7(+7)
Из соседнего дома
Eb7                     Abm7 Eb7(+9) Abm7
Мне навстречу выходит вот те    на

-прип-

Dbm7  Eb7     Eb7(+7) Abm7
Синяя рыжая девоч     ка,
синяя рыжая маленькая
Синяя рыжая девочка
Dbm7  Eb7(+7)  Eb7
Синяя рыжая а  тут я

-так же-
Ах сударыня бросьте
Как же так ну разгар трудового ж дня
Как при вашем-то росте
Столько огненной взять и на грудь принять
Ну где родители, школа
Вобщем старших нет - не на кого пенять
Это ж взрыв тринитротолуола(?)
А в итоге виновен во всём один я

Синяя рыжая девочка,
синяя рыжая маленькая
Синяя рыжая девочка
Синяя рыжая а тут я

Dbm7
Мы гусары а не воры
   Eb7            Abm7
Я предлагаю разговоры
Dbm7
Берегите микрофлору
 Eb7            Abm7
В башне же ветер
Dbm7
Неожиданные встречи
Eb7                Abm7
Верьте мне кураж не вечен
Dbm7                                  Eb7 Abm7
Обойдёмся без хард-кора в этот вечер
Dbm7
Вон вас как к бордюру кренит
Eb7                   Abm7
Позже чуть ваш прынц приедет
Dbm7
Я и он - сравните сами
Eb7     Abm7
Дебет кредит
Dbm7
Домик с беленьким забором
Eb7            Abm7
И щеночки лабрадора
Dbm7
С вами нам навряд ли скоро
Eb7       Abm7
Светят-светят

-прип-
Синяя рыжая девочка,
синяя рыжая маленькая
Синяя рыжая девочка
Синяя рыжая а тут я
Синяя рыжая девочка,
Синяя рыжая маленькая
Синяя рыжая девочка
Синяя рыжая а тут я....
https://primanota.ru/bumboks/sinyaya-ryzhaya-devochka.htm

Привет, гитарист!

Тебе подарок от сайта PrimaNota.ru

Забрать подарок
ВАМ ПОДАРКИ ОТ ПРОЕКТА
"ГИТАРНАЯ РЕВОЛЮЦИЯ"