Войти:  Facebook Google Twitter Vk Yandex Mail.ru
PrimaNota.ru - самый крупный в мире бесплатный архив песенных текстов, аккордов, табулатур и нот


Буерак - Танцы По Расчету - таба, видео

Печатать
Просмотров: 122
Лучшая metal-группа Петербурга

Танцы По Расчету

  • аккорды и текст

Буерак - Танцы По Расчету


[Riff 1]

Repeat

e|-----5-5-4-4-------------------|
B|-------------5-------7-----7---|
G|-------------------6-----6-----|
D|---4-------------4-------------|
A|---------------4-------4-------|
E|-------------------------------| x3

with every 4th time

e|-----4-4---4-4-4-\7-7-7-7------|
B|--------5-5--------------------|
G|-------------------------------|
D|---2---------------------------|
A|-------------------------------|
E|-------------------------------| x1


[Riff 2]

Repeat

e|---5---------------------------|
B|-----5-\7-7--------------------|
G|------------6-6-6-6------------|
D|-------------------------------|
A|-------------------------------|
E|-------------------------------| x3

with every 4th time

e|---5-4------5-5-5-5-4----------|
B|-------5-5---------------------|
G|-------------------------------|
D|-------------------------------|
A|-------------------------------|
E|-------------------------------| x1


[Solo]

e|---9-9-9-9-12-12-12-------------------------------------------------------------------|
B|--------------------10-10-10-10-10-12-12-12-9-9-9-9-9-9-9-9-9-9-9-9-10-10-10-12-12----|
G|--------------------------------------------------------------------------------------|
D|--------------------------------------------------------------------------------------|
A|--------------------------------------------------------------------------------------|
E|--------------------------------------------------------------------------------------| x12


Then play Riff 1 till end

End with:

e|---5---|
B|---5---|
G|---6---|
D|---4---|
A|-------|
E|-------|

************************************

| \  Slide

************************************
Добавлено: 23.06.2018
Другие материалы по этой песне:
  • Аккорды и текст

Страница создана 23.06.2018
https://primanota.ru/buerak/tancy-po-raschetu-chords.htm

Привет, гитарист!

Тебе подарок от сайта PrimaNota.ru

Забрать подарок
ВАМ ПОДАРКИ ОТ ПРОЕКТА
"ГИТАРНАЯ РЕВОЛЮЦИЯ"