Войти:  Facebook Google Twitter Vk Yandex Mail.ru
PrimaNota.ru - самый крупный в мире бесплатный архив песенных текстов, аккордов, табулатур и нот


Буерак - Таксист - табы

Печатать
Лучшая metal-группа Петербурга

Таксист

  • аккорды, текст

Буерак - Таксист

[Riff 1]

e|---1-1-1-1-1-1-1-5-5-5-5-0-0-6-6-5--------------------------------------------|
B|------------------------------------------------------------------------------|
G|------------------------------------------------------------------------------|
D|------------------------------------------------------------------------------|
A|------------------------------------------------------------------------------|
E|------------------------------------------------------------------------------|(x8)


[Riff 2]

e|---1-1-1-1-1-0-----------------5-5-5-5-5-5-5-3-3-3-3-3-3-3-3------------------|
B|---------------3-3-3-3-3-3-3-3------------------------------------------------|
G|------------------------------------------------------------------------------|
D|------------------------------------------------------------------------------|
A|------------------------------------------------------------------------------|
E|------------------------------------------------------------------------------|(x4)


[Riff 3]

e|---10-10-10-10-10-------------------------------------------------------------|
B|------------------10-8-8-8-8-8-8-8-8-11-11-11-11-11-11-11-6-6-6-6-6-6-6-6-----|
G|------------------------------------------------------------------------------|
D|------------------------------------------------------------------------------|
A|------------------------------------------------------------------------------|
E|------------------------------------------------------------------------------|

e|---10-10-10-10-10--------------------8-8-8-8-8-8-8----------------------------|
B|------------------10-8-8-8-8-8-8-8-8---------------6-6-6-6-6-6-6-6------------|
G|------------------------------------------------------------------------------|
D|------------------------------------------------------------------------------|
A|------------------------------------------------------------------------------|
E|------------------------------------------------------------------------------|(x2)


[Riff 4] till end

e|---------8-8---------------5-----------8-8-----------------8------------------|
B|-------5-----8-6-6-5h6---8---8-6-----5-----8-6-6-8h10---10---10-6-------------|
G|---7-----------------------------7--------------------------------------------|
D|---8-----------------------------8--------------------------------------------|
A|------------------------------------------------------------------------------|
E|------------------------------------------------------------------------------|


************************************

| h hammer-on

************************************   
https://primanota.ru/buerak/taksist-chords.htm

Привет, гитарист!

Тебе подарок от сайта PrimaNota.ru

Забрать подарок
ВАМ ПОДАРКИ ОТ ПРОЕКТА
"ГИТАРНАЯ РЕВОЛЮЦИЯ"