Войти:  Facebook Google Twitter Vk Yandex Mail.ru
PrimaNota.ru - самый крупный в мире бесплатный архив песенных текстов, аккордов, табулатур и нот


Буерак - Советский Парфюм - табы

Печатать
Лучшая metal-группа Петербурга

Советский Парфюм


[Riff 1] (Intro p.1)

e|---------------------------------------------------------------------------------|
B|----------5-----------------5----------------------------------------------------|
G|-------------6---6------------6---6----------4-----------------4-----------------|
D|-----6---------6-------6--------6---------------7---7-------------7---7----------|
A|---4---4-------------4---4--------------4---------4-------4---------4------------|
E|--------------------------------------5---5-------------5---5--------------------|

e|---------------------------------------------------------------------------------|
B|----------5-----------------5----------------4-----------------4-----------------|
G|-------------6---6------------6---6----------------------------------------------|
D|-----6---------6-------6--------6---------------6---6-------------6---6----------|
A|---4---4-------------4---4--------------6---------6-------6---------6------------|
E|--------------------------------------4---4-------------4---4--------------------| x4


[Riff 2] (Intro p.2)

e|-------7-4-----------------------------------------------------------------------|
B|-----5---------------------------------------------------------------------------|
G|---------------------------------------------------------------------------------|
D|---6-----------------------------------------------------------------------------|
A|---------------------------------------------------------------------------------|
E|---------------------------------------------------------------------------------| x4

Note: In riffs 3, 4 you can optionally mute D-string

[Riff 3]

e|-----------7-------------4-------------------------------------------------------|
B|-----------------5-------------7-------------------------------------------------|
G|---------------------------------------------------------------------------------|
D|---6-6-6-6---6-6---6-6-6---6-6---------------------------------------------------|
A|---------------------------------------------------------------------------------|
E|---------------------------------------------------------------------------------| x4


[Riff 4]

e|---------------12----------------------------------------------------------------|
B|-----------------------12-------------------12-----------------------------------|
G|-----------------------------------13--------------------------------------------|
D|---11-11-11-11---11-11----11-11-11----11-11--------------------------------------|
A|---------------------------------------------------------------------------------|
E|---------------------------------------------------------------------------------| x4

Then repeat Riff 3, Riff 4.


[Riff 5]

Repeat till end

e|---5-5---4-4---9------9-9-9------------------------------------------------------|
B|---5-5---5-5-----9----7-7-7------------------------------------------------------|
G|---6-6---6-6-------9--9-9-9------------------------------------------------------|
D|---------------------------------------------------------------------------------|
A|---------------------------------------------------------------------------------|
E|---------------------------------------------------------------------------------|

End with

e|---4-----|
B|---5-----|
G|---6-----|
D|---------|
A|---------|
E|---------|


ооооо 
тройной одеколон
приятный запах, ностальгический запах
от женщин нет покоя, очередь на весь дом

одеколон
на весь дом

ооооо
солдатские духи
в себя два бутылька
и убегает жена, забывает надеть сапоги

жена
сапоги

люблю советский я парфюм
и презираю зарубежный
выпиваю по 2 сорта в день
и наполняю жизнь надеждой

люблю советский я парфюм
меня никто не понимает
он убивает комаров
и лучше пива расслабляет


************************************

Thanks Arseny M. for contribution.   
https://primanota.ru/buerak/sovetskii-parfyum-chords.htm

Привет, гитарист!

Тебе подарок от сайта PrimaNota.ru

Забрать подарок
ВАМ ПОДАРКИ ОТ ПРОЕКТА
"ГИТАРНАЯ РЕВОЛЮЦИЯ"