Войти:  Facebook Google Twitter Vk Yandex Mail.ru
PrimaNota.ru - самый крупный в мире бесплатный архив песенных текстов, аккордов, табулатур и нот


Буерак - Шаги - табы

Печатать
Лучшая metal-группа Петербурга

Шаги

  • аккорды, текст

Буерак - Шаги

[Riff 1]

e|---4-4------4-4-4------4-4-4------4-4-4------4------------------------------------------|
B|------6----6-----6----6-----6----6-----6----6-------------------------------------------|
G|----------------------------------------------------------------------------------------|
D|-------4--4-------4--4------------------------------------------------------------------|
A|-----------------------------4--4-------4--4--------------------------------------------|
E|----------------------------------------------------------------------------------------| x4

[Riff 2]

e|---6-6------6-6-6------6-4-4------4-4-4------4-2-2------2-2-2------2-1-1------1-1-1-----|
B|------6----6-----6----6-----6----6-----6----6-----2----2-----2----2-----2----2-----2----|
G|----------------------------------------------------------------------------------------|
D|-------4--4-------4--4-----------------------------4--4-------4--4----------------------|
A|-----------------------------4--4-------4--4-----------------------------1--1-------1---|
E|----------------------------------------------------------------------------------------| x4

[Riff 3]

e|---6-6-6-6-6-----4-4-4-4-4-4------------------------------------------------------------|
B|---6-6-6-6-6-6---6-6-6-6-6-6---6-6-6-6-9-9-9---6-6-6-6-6-2-2-2--------------------------|
G|-------------6-----------------6-6-6-6-6-6-6---6-6-6-6-6-3-3-3--------------------------|
D|-------------------------------8--------------------------------------------------------|
A|----------------------------------------------------------------------------------------|
E|----------------------------------------------------------------------------------------| x4

[Riff 4]

e|-----------------------------------\6-6-6-6-6-6-6-6-6-\8-8-8-8--------------------------|
B|---2-2-2-2-2-2-2-2-2-2-2-2-2-2-2-2-----------------------------9-9-9--------------------|
G|----------------------------------------------------------------------------------------|
D|----------------------------------------------------------------------------------------|
A|----------------------------------------------------------------------------------------|
E|----------------------------------------------------------------------------------------| x4

[Solo] till end

e|---6-6-6-6-6-6-6-6-6-6-6-6-6-6-8-9-8----8-8-8-9-8-------------|
B|-------------------------------------9------------9-9-9-6-6-6-|
G|--------------------------------------------------------------|
D|--------------------------------------------------------------|
A|--------------------------------------------------------------|
E|--------------------------------------------------------------|

e|-6-6-6-6-6-6-6-6-6-6-6-6-6-6-8-9-8-----------------------------|
B|-----------------------------------9--9-9-9-\6-6-6-6-6-2-2-2---|
G|---------------------------------------------------------------|
D|---------------------------------------------------------------|
A|---------------------------------------------------------------|
E|---------------------------------------------------------------|

************************************

| \ slide

************************************   
Другие композиции этого автора:
Другие материалы по этой песне:
  • Аккорды, текст

https://primanota.ru/buerak/shagi-chords.htm

Привет, гитарист!

Тебе подарок от сайта PrimaNota.ru

Забрать подарок
ВАМ ПОДАРКИ ОТ ПРОЕКТА
"ГИТАРНАЯ РЕВОЛЮЦИЯ"