Войти:  Facebook Google Twitter Vk Yandex Mail.ru
PrimaNota.ru - самый крупный в мире бесплатный архив песенных текстов, аккордов, табулатур и нот


Буерак - Пролетариат - табы

Печатать
Лучшая metal-группа Петербурга

Пролетариат

  • аккорды, текст

Буерак - Пролетариат

1)Вступление - Басовая часть
2)Verse
3)Что-то вроде соло
4)Второй Verse

Количество ударов по струнам указано примерно, советую прослушивать композицию во время чтения табулатуры.

[Intro]
(bass line) 
(short guitar line) 
(bass line again)

G|-------------------------------------|
D|-------------------------------------| x5
A|--4-4-4-4----------------------------|
E|----------4-4-4-4--5-5-5-5--0-0-0-0--|

e|-----|
b|-----|
G|-----|
D|--2--|
A|--0--|
E|-----|

G|------------------------------------------------------------------------------|
D|---------------------3-3-3-3-3-3-3-3------------------------------------------| x2
A|-----------------3-3-----------------5-5-5-5-5-5-5-5--3-3-3-3-3-3-3-3--2-2-2--|
E|-5-5-5-5-5-5-5-5------------------------------------------------------------5-|


[Verse]

e|----------------------------------------|-------------------|       |--------------------------|
B|----------------------------------------|-------------------|или    |--------------------------|
G|----------------------------------------|-5-5-5-5--4-4-4-4--|на     |--17-17-17-17--16-16-16-16|
D|-----2-2--------------2-2-----3-3-------|-x--------x--------|октаву |--x------------x----------|
A|-0-0-----3-3-2-2--0-0-----3-3-----------|-3-3-3-3--2-2-2-2--|выше   |--15-15-15-15--14-14-14-14|
E|----------------------------------------|-------------------|       |--------------------------|


[Solo]

e|-----------------------------------------------------------------------------------|
B|-----------------------------------------------------------------------------------|
G|-----------------------------------------------------------------------------------|
D|-2-2-2-2-2-2-2-2--4-4-4--5-5-5-5-5-5-5-5--8-8-8--9-9-9-9-9-9-9-9--7-7-7-7-7-7-7-7--|
A|-0-0-0-0-0-0-0-0--2-2-2--3-3-3-3-3-3-3-3--6-6-6--7-7-7-7-7-7-7-7--5-5-5-5-5-5-5-5--|
E|-----------------------------------------------------------------------------------|


[Verse 2]

e|---------------------------------------------10-10-10-10----------------------------------8-8-8-8-7-7-7-7-7|
B|-----------------12-12-12-8-8-8-8-8-7-7-7-7-7-----------10-10-8-8-8-8-8-8-7-7-7-8-8-8-8-8------------------|
G|--9-9-9-9-9-9-9-9------------------------------------------------------------------------------------------|
D|-----------------------------------------------------------------------------------------------------------|
A|-----------------------------------------------------------------------------------------------------------|
E|-----------------------------------------------------------------------------------------------------------|
 
************************************

| x  Dead note

************************************
            
                            
Suggest correction What's this? You can suggest a correction to this tab. Community and Mods will review your correction and vote to approve or reject it.
window.gpads.que.push({ cs: 'ad_cs_2010319_300_250', p: 2010319, w: 300, h: 250, iwidth:610, iheight:300, amzn: '3x2', q_str: '&promo_sizes=610x300&promo_alignment=center&song_name=%D0%BF%D1%80%D0%BE%D0%BB%D0%B5%D1%82%D0%B0%D1%80%D0%B8%D0%B0%D1%82&artist=68085' });
Give kudos to tab author, rate the tab! 1 2 3 4 5
comments print report bad tab 1 comment total. 0 reply degot88 968 Jul 13, 2016 10:01 AM в конце Verse неправильно, там играется: e|------------------------------------------| B|------------------------------------------| G|------------------------------------------| D|-\10-10-10-10-10-10-10-10-9-9-9-9-9-9-9-7-| A|----8--8--8--8--8--8--8--8-7-7-7-7-7-7-7--| E|------------------------------------------|
https://primanota.ru/buerak/proletariat-chords.htm

Привет, гитарист!

Тебе подарок от сайта PrimaNota.ru

Забрать подарок
ВАМ ПОДАРКИ ОТ ПРОЕКТА
"ГИТАРНАЯ РЕВОЛЮЦИЯ"