Войти:  Facebook Google Twitter Vk Yandex Mail.ru
PrimaNota.ru - самый крупный в мире бесплатный архив песенных текстов, аккордов, табулатур и нот


Буерак - Преступность - табы

Печатать
Лучшая metal-группа Петербурга

Преступность

  • аккорды, текст

Буерак - Преступность
Tuning: Standard
(2 riffs along the song)

[Riff 1]

e|------------------------------------------------------------------------------------|
B|------------------------------------16-16-16-15-15----------------------------------|
G|---12-12-12-12-14-14-14-15-15-15-15-------------------------------------------------|
D|------------------------------------------------------------------------------------|
A|------------------------------------------------------------------------------------|
E|------------------------------------------------------------------------------------|


[Riff 2]

e|------------------------------------------------------------------------------------|
B|------------------------------------------------------------------------------------|
G|------------------------------------------------------------------------------------|
D|-------5---5-------6---6-------10---10------9---9-----------------------------------|
A|------------------------------------------------------------------------------------|
E|---3-3---3---3-4-4---4---4-6-6----6---6-5-5---5---5---------------------------------|


[Riff 1]

e|------------------------------------------------------------------------------------|
B|------------------------------------16-16-16-15-15----------------------------------|
G|---12-12-12-12-14-14-14-15-15-15-15-------------------------------------------------|
D|------------------------------------------------------------------------------------|
A|------------------------------------------------------------------------------------|
E|------------------------------------------------------------------------------------|   
https://primanota.ru/buerak/prestupnost-chords.htm

Привет, гитарист!

Тебе подарок от сайта PrimaNota.ru

Забрать подарок
ВАМ ПОДАРКИ ОТ ПРОЕКТА
"ГИТАРНАЯ РЕВОЛЮЦИЯ"