Войти:  Facebook Google Twitter Vk Yandex Mail.ru
PrimaNota.ru - самый крупный в мире бесплатный архив песенных текстов, аккордов, табулатур и нот


Буерак - Портреты - табы

Печатать
Лучшая metal-группа Петербурга

Портреты

  • аккорды, текст

Буерак - Портреты

(4 riffs along the song)

[Verse]

e|---5-----5-----5---5-----5-----5---3-----3-----3---6-----6-----6-----------|
B|-----6-----6---------6-----6---------5-----5---------5-----5---------------|
G|-------3-----3---3-----3-----3---------2-----2---------2-----2-------------|
D|---------------------------------------------------------------------------|
A|---------------------------------------------------------------------------|
E|---------------------------------------------------------------------------|


[Chorus]

e|----------------------------------------------------------------------------------------------------------|
B|---11-11-11-10-10-10-8-8-8-6-6-5-6--11-11-11-10-10-10-8-8-8-6-6-5-6--13-13-13-11-11-10--------------------|
G|----------------------------------------------------------------------------------------14-14-14-12-12-9--|
D|----------------------------------------------------------------------------------------------------------|
A|----------------------------------------------------------------------------------------------------------|
E|----------------------------------------------------------------------------------------------------------|


[Verse]

e|---------------------------------------------------------------------------|
B|---10-----10-----10---13-----13-----13---10----10----10---11----11----11---|
G|-----10-----10----------10-----10----------9-----9----------9-----9--------|
D|-------12-----12---12-----12-----12---12----12----12---12----12----12---12-|
A|---------------------------------------------------------------------------|
E|---------------------------------------------------------------------------|


[Outro]

e|---------------------------------------------------------------------------|
B|---10....8....11....-------------------------------------------------------|
G|---------------------------------------------------------------------------|
D|---------------------------------------------------------------------------|
A|---------------------------------------------------------------------------|
E|---------------------------------------------------------------------------|   
https://primanota.ru/buerak/portrety-chords.htm

Привет, гитарист!

Тебе подарок от сайта PrimaNota.ru

Забрать подарок
ВАМ ПОДАРКИ ОТ ПРОЕКТА
"ГИТАРНАЯ РЕВОЛЮЦИЯ"