Войти:  Facebook Google Twitter Vk Yandex Mail.ru
PrimaNota.ru - самый крупный в мире бесплатный архив песенных текстов, аккордов, табулатур и нот


Буерак - Полны Любви - табы

Печатать
Лучшая metal-группа Петербурга

Полны Любви

  • аккорды, текст

Буерак - Полны любви
Tuning: Standard


[Start with]

e|------------------------------------------------------------------------------------|
B|------------------------------------------------------------------------------------|
G|------------------------------------------------------------------------------------|
D|---0-0-0------15\0------------------------------------------------------------------|
A|------------------------------------------------------------------------------------|
E|------------------------------------------------------------------------------------|


[Main riff]

e|------------------------------------------------------------------------------------|
B|------------------------------------------------------------------------------------|
G|--------------------------------12-12-----------------------------------------------|
D|---------------10-10-10-9-9-9-9-----------------------------------------------------|
A|---12-12-12-12-----------------------10-10-10---------------------------------------|
E|------------------------------------------------------------------------------------|


[End riff]

e|------------------------------------------------------------------------------------|
B|------------------------------------------------------------------------------------|
G|---9-9-9-9-9-9-9-9-9-9-9-9-9-9-7-7-12-12-12-12-12-12-12-12-10-10-10-10-10-10-10-7---|
D|------------------------------------------------------------------------------------|
A|------------------------------------------------------------------------------------|
E|------------------------------------------------------------------------------------|   
https://primanota.ru/buerak/polny-lyubvi-chords.htm

Привет, гитарист!

Тебе подарок от сайта PrimaNota.ru

Забрать подарок
ВАМ ПОДАРКИ ОТ ПРОЕКТА
"ГИТАРНАЯ РЕВОЛЮЦИЯ"