Войти:  Facebook Google Twitter Vk Yandex Mail.ru
PrimaNota.ru - самый крупный в мире бесплатный архив песенных текстов, аккордов, табулатур и нот


Буерак - Побитый Интеллигент - табы

Печатать
Лучшая metal-группа Петербурга

Побитый Интеллигент

  • аккорды, текст

Буерак - Побитый Интеллигент

[Intro]

e|---2-2-----------------0-0-0------------------------------------------------------------|
B|-------2-2-2-2-0-0-0--------------------------------------------------------------------|
G|---------------------2------------------------------------------------------------------|
D|----------------------------------------------------------------------------------------|
A|----------------------------------------------------------------------------------------|
E|----------------------------------------------------------------------------------------| x8

[Riff 1]

e|---2-2-2-2------------------------------------------------------------------------------|
B|-----------2-2-0-0-0--------------------------------------------------------------------|
G|---------------------2-2-2-2------------------------------------------------------------|
D|----------------------------------------------------------------------------------------|
A|----------------------------------------------------------------------------------------|
E|----------------------------------------------------------------------------------------| x4

[Riff 2]

e|---2--2--2-----------0-0--2--2--2-7-7-7-5-5-5-5-----------------------------------------|
B|---2--2--2---------0-0-0--2--2--2-7-7-7-5-5-5-5-----------------------------------------|
G|-----------4-4-4-2----------------------------------------------------------------------|
D|----------------------------------------------------------------------------------------|
A|----------------------------------------------------------------------------------------|
E|----------------------------------------------------------------------------------------| x2

Riff 1 x1
Riff 2 x1

Then

[Riff 3]

e|----------------------------------------------------------------------------------------|
B|---------2-------------5-------------2-------------3------------------------------------|
G|-------2---2---------6---6---------2---2---------2---2----------------------------------|
D|-----4-------4-----4-------4-----4-------4-----2-------2--------------------------------|
A|---0-------------0-------------0-------------0------------------------------------------|
E|----------------------------------------------------------------------------------------| x4

[Riff 4] till end

e|-------------------------------------------------------5-5-5----------------------5-5-5------7-7-7---------|
B|-2-2-2------3-3-3-2-2-2-2---2-2-2------3-3-3-2-2-2-2--------5-5-5-3-3-3-2-2-2-2--------5-5-5-------5-5-5-5-|
G|------2-2-2----------------------2-2-2---------------------------------------------------------------------|
D|-----------------------------------------------------------------------------------------------------------|
A|-----------------------------------------------------------------------------------------------------------|
E|-----------------------------------------------------------------------------------------------------------|

End with

e|---2--|
B|---2--|
G|---2--|
D|---4--|
A|------|
E|------|
   
https://primanota.ru/buerak/pobityi-intelligent-chords.htm

Привет, гитарист!

Тебе подарок от сайта PrimaNota.ru

Забрать подарок
ВАМ ПОДАРКИ ОТ ПРОЕКТА
"ГИТАРНАЯ РЕВОЛЮЦИЯ"