Войти:  Facebook Google Twitter Vk Yandex Mail.ru
PrimaNota.ru - самый крупный в мире бесплатный архив песенных текстов, аккордов, табулатур и нот


Буерак - Непонятный Руководящий Импульс - таба, видео

Печатать
Просмотров: 97
Лучшая metal-группа Петербурга

Непонятный Руководящий Импульс

  • аккорды и текст

Буерак - Непонятный Руководящий Импульс
Tuning: Standard
(2 riffs along the song)

[Riff 1]

Repeat to the middle of the song

e|----0----------0--------------------------------------------------------------------|
B|---------6--------------------------------------------------------------------------|
G|---5---5-----5----------------------------------------------------------------------|
D|------------------------------------------------------------------------------------|
A|------------------------------------------------------------------------------------|
E|------------------------------------------------------------------------------------|

With every 6th time

e|------0--------------0--------------------------------------------------------------|
B|--------------6---------------------------------------------------------------------|
G|-----5-----5-----5------------------------------------------------------------------|
D|---5------5-5---5--5----------------------------------------------------------------|
A|------------------------------------------------------------------------------------|
E|------------------------------------------------------------------------------------|


[Riff 2]

Stroke this chords with chorus effect till the end of song

e|---5------5------5------5-----------------------------------------------------------|
B|---5------6------5------5-----------------------------------------------------------|
G|---5------5------5------5-----------------------------------------------------------|
D|---7-...--7-...--5-...--7-...-------------------------------------------------------|
A|------------------------------------------------------------------------------------|
E|------------------------------------------------------------------------------------|
Добавлено: 23.06.2018
Другие материалы по этой песне:
  • Аккорды и текст

Страница создана 23.06.2018
https://primanota.ru/buerak/neponyatnyi-rukovodyashhii-impuls-chords.htm

Привет, гитарист!

Тебе подарок от сайта PrimaNota.ru

Забрать подарок
ВАМ ПОДАРКИ ОТ ПРОЕКТА
"ГИТАРНАЯ РЕВОЛЮЦИЯ"