Войти:  Facebook Google Twitter Vk Yandex Mail.ru
PrimaNota.ru - самый крупный в мире бесплатный архив песенных текстов, аккордов, табулатур и нот


Буерак - Формы - таба, видео

Печатать
Просмотров: 54
Лучшая metal-группа Петербурга

Формы

  • аккорды и текст

Буерак - Формы

Start with

e|----------|
B|---11~~---|
G|---12~~---|
D|----------|
A|----------|
E|----------| x2

[Riff 1]

e|--------------------------------------------------------------8-8-5-5-6-6-------|
B|----------------------------------------------8-8-------------------------------|
G|--------10-10-7-7-8-----------------------7-7-----7-7-8-------------------------|
D|---7--8-------------8---8-10-10-7-7-8-8-----------------8---8-------------------|
A|--------------------------------------------------------------------------------|
E|--------------------------------------------------------------------------------| x4

[Riff 2]

e|--------------------------------------------------------------------------------|
B|--------------------------------------------------------------------------------|
G|---------12------------15-------11----------------------------------------------|
D|------12------------13--------8-------------------------------------------------|
A|---10------------13---------9---------------------------------------------------|
E|--------------------------------------------------------------------------------| x4

[Riff 3]

e|--------------------------------------------------------------------------------|
B|---3---------------3---------------4---------------6----------------------------|
G|-----5---5---5---5---5---5---5---5---5---5---5---5---5---5---5---5--------------|
D|-------5---5---5-------5---5---5-------6---6---6-------6---6---6----------------|
A|--------------------------------------------------------------------------------|
E|--------------------------------------------------------------------------------| x4

[Riff 4]

e|---------------------------|
B|---------------------------|
G|---7-...--8-...--10-...----|
D|---------------------------|
A|---------------------------|
E|---------------------------|

till end

В доме моём 4 стены 
Стены чёрной формы
На каждой из них висят зеркала
Круги чёрной формы

Застряло в стекле отражение моё
Трещина вместо лица
Молния в небе гуляет всю ночь
Бьёт до крови облака 

Омывает берег реки
Песок чёрной формы
Люди мечтают сбежать из земли
Земли чёрной формы

************************************

| ~  Vibrato

************************************
Добавлено: 23.06.2018
Другие материалы по этой песне:
  • Аккорды и текст

Страница создана 23.06.2018
https://primanota.ru/buerak/formy-chords.htm

Привет, гитарист!

Тебе подарок от сайта PrimaNota.ru

Забрать подарок
ВАМ ПОДАРКИ ОТ ПРОЕКТА
"ГИТАРНАЯ РЕВОЛЮЦИЯ"