Войти:  Facebook Google Twitter Vk Yandex Mail.ru
PrimaNota.ru - самый крупный в мире бесплатный архив песенных текстов, аккордов, табулатур и нот


Буерак - Электропоезд Ласточка - таба, видео

Печатать
Просмотров: 75
Лучшая metal-группа Петербурга

Электропоезд Ласточка

  • аккорды и текст

Буерак - Электропоезд ласточка
Tuning: Standard
(4 riffs along the song)

[Riff 1]

e|---------0---------------0----1-----------------------------------------------------|
B|-------1---1------1-----------------------------------------------------------------|
G|-----2-------2------3---------------------------------------------------------------|
D|---0--------------------------------------------------------------------------------|
A|------------------------------------------------------------------------------------|
E|------------------------------------------------------------------------------------|

[Riff 2] (With Chorus effect)

e|---0---------1------------|
B|---1---------1------------|
G|---2---------3------------|
D|---0-(x12)---3-(x12)------|
A|--------------------------| 
E|--------------------------|

[Riff 3]

e|------------------------------------------------------------------------------------|
B|------------------------------------------------------------------------------------|
G|------------------------------------------------------------------------------------|
D|-------------------7-7-7-7-7-7-7-7-8-8-8-8-8-8-8-8-------10-----8-------------------|
A|---5-5-5-5-5-5-5-5---------------------------------8-8-8----7-7---7-----------------|
E|------------------------------------------------------------------------------------|

[Riff 4]

e|----------------------------------------------------------------------------------------|
B|-------------------10-10-10-10-10-10-10-10-11-11-11-11-11-11-11-11----------------------|
G|--------------------9--9--9--9--9--9--9--9-10-10-10-10-10-10-10-10----------------------|
D|---7-7-7-7-7-7-7-7--7--7--7--7--7--7--7--7--8--8--8--8--8--8--8--8-10-10-10-10-8-8-8-8--|
A|---5-5-5-5-5-5-5-5--------------------------------------------------8--8--8--8-7-7-7-7--|
E|----------------------------------------------------------------------------------------|


------------------------------------------------------------------------------------
-- Alternate version of Riffs 1,2 which is pretty much the same but has more bass --
------------------------------------------------------------------------------------

[Riff 1]

e|------------------------------------------------------------------------------------|
B|---------5---------------5----6-----------------------------------------------------|
G|-------5---5------5-----------------------------------------------------------------|
D|-----7-------7------8---------------------------------------------------------------|
A|---5--------------------------------------------------------------------------------|
E|------------------------------------------------------------------------------------|

[Riff 2]

e|---5--------5--------|      e|---5--------5--------5--------5--------|
B|---5--------6--------|      B|---5--------6--------8--------6--------|
G|---5--------5--------|      G|---5--------5--------5--------5--------|
D|---7--------8--------|      D|---7--------8--------7--------8--------|
A|---5-...----5-...----|      A|---5-...----5-...----5-...----5-...----|
E|---------------------| x2   E|---------------------------------------| x2
Добавлено: 23.06.2018
Другие материалы по этой песне:
  • Аккорды и текст

Страница создана 23.06.2018
https://primanota.ru/buerak/elektropoezd-lastochka-chords.htm

Привет, гитарист!

Тебе подарок от сайта PrimaNota.ru

Забрать подарок
ВАМ ПОДАРКИ ОТ ПРОЕКТА
"ГИТАРНАЯ РЕВОЛЮЦИЯ"