Войти:  Facebook Google Twitter Vk Yandex Mail.ru
PrimaNota.ru - самый крупный в мире бесплатный архив песенных текстов, аккордов, табулатур и нот


Буерак - Целина - таба, видео

Печатать
Просмотров: 50
Лучшая metal-группа Петербурга

Целина

  • аккорды и текст

Буерак - Целина
Tuning: Standard

[Riff 1]

e|------------------------------------------------------------------------------------|
B|------------------------------------------------------------------------------------|
G|------------------------------------------------------------------------------------|
D|-----------------------------------------------------5-5-5-5-5-5-5------------------|
A|---0-2-2-2-2-2-2-2-2-2-2-2-2-2-2-0-0-3-3-3-3-3-3-3-3--------------------------------|
E|------------------------------------------------------------------------------------| x4


[Riff 2]

e|------------------------------------------------------------------------------------|
B|------------------------------------------------------------------------------------|
G|------------------------------------------------------------------------------------|
D|-----------------------------------------------------5-5-5-5-5-5-5------------------|
A|---0-2-2--0-2-2--0-2-2--0-2-2--0-3-3--0-3-3--0-3-3--0-------------------------------|
E|------------------------------------------------------------------------------------| x4


[Riff 3]

e|------------------------------------------------------------------------------------|
B|------------------------------------------------------------------------------------|
G|---------------------------------------------------5-5-5-5-5-5-5-5------------------|
D|---2-2-2-2-2-2-2-2-2-2-2-2-2-2-2-2-1-1-1-1-1-1-1-1----------------------------------|
A|------------------------------------------------------------------------------------|
E|------------------------------------------------------------------------------------| x4


[Riff 4] (with distortion)

e|------------------------------------------------------------------------------------|
B|------------------------------------------------------------------------------------|
G|---9-9-9-9-9-9-9-9-9-9-9-9-9-9-9-9-8-8-8-8-8-8-8-8-17-17-17-17-17-17-17-17----------|
D|------------------------------------------------------------------------------------|
A|---7-7-7-7-7-7-7-7-7-7-7-7-7-7-7-7-6-6-6-6-6-6-6-6-15-15-15-15-15-15-15-15----------|
E|------------------------------------------------------------------------------------| x4


[Riff 5] (with distortion)

till end

e|------------------------------------------------------------------------------------|
B|------------------------------------------------------------------------------------|
G|---9------8------5------------------------------------------------------------------|
D|------------------------------------------------------------------------------------|
A|---7------6------3------------------------------------------------------------------|
E|------------------------------------------------------------------------------------|
Добавлено: 23.06.2018
Другие материалы по этой песне:
  • Аккорды и текст

Страница создана 23.06.2018
https://primanota.ru/buerak/celina-chords.htm

Привет, гитарист!

Тебе подарок от сайта PrimaNota.ru

Забрать подарок
ВАМ ПОДАРКИ ОТ ПРОЕКТА
"ГИТАРНАЯ РЕВОЛЮЦИЯ"