Войти:  Facebook Google Twitter Vk Yandex Mail.ru
PrimaNota.ru - самый крупный в мире бесплатный архив песенных текстов, аккордов, табулатур и нот


Buckethead - Scoop From The Coop - таба, видео

Печатать
Просмотров: 288
Лучшая metal-группа Петербурга

Scoop From The Coop


Artist : Buckethead
Song   : Scoop from the Coop
Tuning : Eb Ab Db Gb Bb Eb

 For this part I sweep and then tap with my right index and pinky fingers

E----------------------9h13t17t21t17p13p9\8h12t16t20t16p12p8\7h11t15t19t15p11p7\6--|
B-----------------10---------------------------------------------------------------|
G-------------10-------------------------------------------------------------------|
D---------11-----------------------------------------------------------------------|
A---8h12---------------------------------------------------------------------------|
E----------------------------------------------------------------------------------|

E-h10t14t18t14p10p6-----------------------------------------------------------------|
B---------------------t15t19t15p11p7\6h10t14t18t14p10p6\5h9h13t17t13tp9p5-----------|
G-----------------------------------------------------------------------------------|
D-------------------------------------------------------------------------t13t17t13-|
A-----------------------------------------------------------------------------------|
E-----------------------------------------------------------------------------------|

E----------------------------------------------------------------------------------|
B----------------------------------------------------------------------------------|
G----------------------------------------------------------------------------------|
D-p9p5\4h8ht12t16t12p8p4\3~~~~-----------------------------------------------------|
A----------------------------------------------------------------------------------|
E----------------------------------------------------------------------------------|

For this, I tap with all my  right hand fingers

E----------------------------------------------------------------------------------|
B----------------------------------------------------------------t16-10------------|
G-----------------------t14-8---------t16-10-------t18-12--------------------------|
D---------t17-11---------------------------------------------------------t14-8-----|
A--------------------------------------------t15-9--------t17-11-------------------|
E---t14-8--------t16-10--------t18-12----------------------------------------------|

E-----------------|
B--t18-12---------|
G-----------------|
D---------t16-10--|
A-----------------|
E-----------------|
Добавлено: 20.07.2012
Другие материалы по этой песне:

Страница создана 04.05.2012
https://primanota.ru/buckethead/scoop-from-the-coop-chords.htm

Привет, гитарист!

Тебе подарок от сайта PrimaNota.ru

Забрать подарок
ВАМ ПОДАРКИ ОТ ПРОЕКТА
"ГИТАРНАЯ РЕВОЛЮЦИЯ"