Войти:  Facebook Google Twitter Vk Yandex Mail.ru
PrimaNota.ru - самый крупный в мире бесплатный архив песенных текстов, аккордов, табулатур и нот


Buckethead - Pure Imagination Live - табы

Печатать
Лучшая metal-группа Петербурга

Pure Imagination Live

  • аккорды, текст
  • gtp-табы

yep, this is the way buckethead plays this thing live,
pretty easy
 
Tunning:standard

|-12-14-15-16-17~-|
|-----------------|
|-----------------|
|-14-16-17-18-19~-|
|-----------------|
|-----------------|

|--------------------------------------------|
|--------------------------------------------|
|-----7-----7------11-12-11-12-11-12-11~-----|
|---5-----5-----5------------------------12--|
|-7-----7-----7------------------------------|
|------------------0-------------------------|

|----------------------------------|
|----------------------------------|
|-----4--5-7-4---------------------|
|---5----------7-5-4-5-4-5-4-5-4---|
|-7------------------------------5-|
|----------------------------------|

|-----------------------|
|-8-10-8-10-8~--7-------|
|------------------7----|
|---------------------9-|
|-----------------------|
|-8-------------7-------|

|----------------------|
|--------------------3-|
|-4-5-4-5-4-------4----|
|-5---------5----4-----|
|-0-------------5------|
|--------------3-------|

|--2-3-2-3-2----------2---|
|------------2-----5------|
|--4--------------4-------|
|----------------x--------|
|-(2)-----------2---------|
|-------------------------|

|-0-2-3-4-5~-|
|------------|
|------------|
|-2-4-5-6-7~-|
|------------|
|------------|
   
https://primanota.ru/buckethead/pure-imagination-live-chords.htm

Привет, гитарист!

Тебе подарок от сайта PrimaNota.ru

Забрать подарок
ВАМ ПОДАРКИ ОТ ПРОЕКТА
"ГИТАРНАЯ РЕВОЛЮЦИЯ"