Войти:  Facebook Google Twitter Vk Yandex Mail.ru
PrimaNota.ru - самый крупный в мире бесплатный архив песенных текстов, аккордов, табулатур и нот


Brite Futures - Jag In A Jungle - табы, видео

Печатать
Лучшая metal-группа Петербурга

Jag In A Jungle

  • аккорды и текст

Guitar 1


[Intro] and [Verse]

e|---------------------------------------------------------------------------|
B|-------------------10----10------------------------------------------------|
G|-10-10-10-10-10-10----12----12-12-12---------------------------------------|
D|---------------------------------------------------------------------------|
A|---------------------------------------------------------------------------|
E|---------------------------------------------------------------------------|

Guitar 2


[Intro] And before [Verse]

e|-------------------|--------------------------------------------------------|
B|-------------------|----------------10--------------------------------------|
G|-10-------12-12-10-|-12-------12-12-----------------------------------------|
D|----10-12----------|----10-12-----------------------------------------------|
A|-------------------|--------------------------------------------------------|
E|-------------------|--------------------------------------------------------|

Guitar 3


[Intro] and [Chorus]

e|---------------------------------------------------------------------------|
B|---------------------------------------------------------------------------|
G|-10-10-10...-10-10-10-10/12------------------------------------------------|
D|---------------------------------------------------------------------------|
A|---------------------------------------------------------------------------|
E|---------------------------------------------------------------------------|


[1:22-1:37]

e|--------------------------------10----------------------10-------10-8b-|
B|----------10----------------10-----13-10----10-13-10-------13-10-------|
G|-----------------------------------------12----------12----------------|
D|-12-10-12----12-10-12-10-12--------------------------------------------|
A|-----------------------------------------------------------------------|
E|-----------------------------------------------------------------------|


[Bridge]

(1:53)
e|--------------------------------|
B|------10-10-10------------------|
G|-9-10----------12---------------|
D|--------------------------------|
A|--------------------------------|
E|--------------------------------|



************************************

| b  Bend
| /  Slide up

************************************   
Другие материалы по этой песне:
  • Аккорды и текст

https://primanota.ru/brite-futures/jag-in-a-jungle-chords.htm

Привет, гитарист!

Тебе подарок от сайта PrimaNota.ru

Забрать подарок
ВАМ ПОДАРКИ ОТ ПРОЕКТА
"ГИТАРНАЯ РЕВОЛЮЦИЯ"