Войти:  Facebook Google Twitter Vk Yandex Mail.ru
PrimaNota.ru - самый крупный в мире бесплатный архив песенных текстов, аккордов, табулатур и нот


Boyce Avenue - Wonderwall - текст песни, табы

Печатать
ViraMusic 2019 в Петербурге 4 апреля 2019! Скидка 10%!

Wonderwall

  • аккорды, текст

Wonderwall
Tabbed and arranged by: Alejandro Manzano of Boyce Avenue

www.facebook.com/boyceavenue

video of me playing/singing it:
http://www.youtube.com/watch?v=FQNN5kCbQcQ

Tuning: E  A  D  G  B  E  (standard)(capo 2nd fret)

x = mute
^ = hammer on or pull off

Intro/Verse:
-3----3----3----3-|
-3----3----3----3-|
-0----0----2----0-|
-2----0----0----2-|
-2----x----0----0-|
-0----3-----------|

Pre-Chorus:
-3-3----2^3^2----3----3-3----2^3^2----3----3-3----2^3^2---|
-3---3--3-----3--3----3---3--3-----3--3----3---3--3-----3-|
-0------2--------0----0------2--------0----0------2-------|
-2------0--------2----2------0--------2----2------0-------|
-3------0--------2----3------0--------2----3------0-------|
-----------------0--------------------0-------------------|

-3--2--0--3--3-|
-3--3--3--3--3-|
-0--2--0--0--0-|
-0--0--2--0--2-|
-x--0--2--x--0-|
-3--2--0--3----|

Chorus/Outro: (my version)
-2--0-----0-----5-----3-|
-0--0-----0-----3-----0-|
-0--0-----0-----0-----0-|
-2--2-----2-----0-----2-|
-3--3-----2-----x-----2-|
-3--3-----0-----3-----0-|

(actual song chorus)
-3----3----3----3-|
-3----3----3----3-|
-0----0----0----0-|
-2----2----0----2-|
-3----2----x----2-|
------0----3----0-|

Turnaround Chord:
-3-
-3-
-0-
-2-
-0-
---   
https://primanota.ru/boyce-avenue/wonderwall-chords.htm

Привет, гитарист!

Тебе подарок от сайта PrimaNota.ru

Забрать подарок
ВАМ ПОДАРКИ ОТ ПРОЕКТА
"ГИТАРНАЯ РЕВОЛЮЦИЯ"