Войти:  Facebook Google Twitter Vk Yandex Mail.ru
PrimaNota.ru - самый крупный в мире бесплатный архив песенных текстов, аккордов, табулатур и нот


Boy - Bulletproof - табы, видео

Печатать
Просмотров: 92
Лучшая metal-группа Петербурга

Bulletproof

  • аккорды и текст

https://www.youtube.com/watch?v=NJ_3esYpqtU watch video for timing


[Intro and Verse]

  Em                       Am7                   C                       Em
e|------------------------|---------------------|-----------------------|-----------------------|
B|------------------------|---------------------|-----------------------|-----------------------|
G|----0-----0-----0----0--|---0-----0---(0)-----|----0-----0----0---0---|---0------0----0-----0-|
D|------------------------|-------2-------------|-------2---------2-----|-----------------------|
A|-------2-----------2----|-0----------0---0--2-|-3----------3----------|-------2----------2----|
E|-0-----------0----------|---------------------|-----------------------|-0----------0----------|

  Em                       Am7                   C                       Em
e|------------------------|---------------------|-----------------------|-----------------------|
B|------------------------|---------------------|-----------------------|-----------------------|
G|----0-----0-----0----0--|---0-----0---(0)-----|----0-----0----0---0---|---0------0---(0)------|
D|------------------------|-------2-------------|-------2---------2-----|-----------------------|
A|-------2-----------2----|-0----------0---0--2-|-3----------3----------|-------2---------------|
E|-0-----------0----------|---------------------|-----------------------|-0----------0----0---2-|



[Chorus]

  G                         Am7                  C                       G
e|------------------------|---------------------|-----------------------|-----------------------|
B|------------------------|---------------------|-----------------------|-----------------------|
G|----0-----0-----0----0--|---0-----0---(0)-----|----0-----0----0---0---|---0------0----0-----0-|
D|------------------------|-------2-------------|-------2---------2-----|-----------------------|
A|-------2-----------2----|-0----------0---0--2-|-3----------3----------|-------2----------2----|
E|-3-----------3----------|---------------------|-----------------------|-3----------3----------|

  G                         Am7                  C                       G
e|------------------------|---------------------|-----------------------|-----------------------|
B|------------------------|---------------------|-----------------------|-----------------------|
G|----0-----0-----0----0--|---0-----0---(0)-----|----0-----0----0---0---|---0------0---(0)------|
D|------------------------|-------2-------------|-------2---------2-----|-----------------------|
A|-------2-----------2----|-0----------0---0--2-|-3----------3----------|-------2---------------|
E|-3-----------3----------|---------------------|-----------------------|-3----------3----3--2--|
Добавлено: 12.01.2018
Другие материалы по этой песне:
  • Аккорды и текст

Страница создана 12.01.2018
https://primanota.ru/boy/bulletproof-chords.htm

Привет, гитарист!

Тебе подарок от сайта PrimaNota.ru

Забрать подарок
ВАМ ПОДАРКИ ОТ ПРОЕКТА
"ГИТАРНАЯ РЕВОЛЮЦИЯ"