Войти:  Facebook Google Twitter Vk Yandex Mail.ru
PrimaNota.ru - самый крупный в мире бесплатный архив песенных текстов, аккордов, табулатур и нот


Bowie, David - Speed of Life - табы

  • аккорды, текст

From: UNH92@aol.com
Date: Fri, 2 Feb 1996 21:03:42 -0500
Subject: TAB: Speed of Life by David Bowie

David Bowie - Speed of Life
From the album "Low"
1977
(written by David Bowie, produced by David Bowie and Tony Visconti)

From the excellent Bowie-Eno "Trilogy" album "Low", this instrumental
Consists of three basic guitar riffs.  There are of course a number of
Eno sonic treatments not easily transcribed.  Have a listen to the recording
To get a feel for the song.  The tab written here is merely a guide to get
Started in the right direction with the lead guitar.


Song structure
Riff 1 4x
Riff 2
Riff 3 2x

Riff 1 4x
Riff 2
Riff 3 2x

Riff 1 4x (fade)

Riff 1

E---||--------------|---------------------|--------------|------------|
B---||---8^--8^--8--|--7--6---------------|--6--6--6--6--|--6--6--6--6|
G---||*-------------|--------8--6--8^--8--|--8--8--8--8--|--5--5--5--5|
D---||*-------------|---------------------|--------------|----------- |
A---||--------------|---------------------|--------------|------------|
E---||--------------|---------------------|--------------|------------|

E---|---------||
B---|--4--4---||
G---|--5--5--*||
D---|--------*||
A---|---------||
E---|---------||


Riff 2

E----------------|---------------|---------------|-----|-
B----------------|---------------|---------------|-----|-
G------7^--7--5--|-----6^--6--4--|-----5^--5--3--|-----|-
D---5------------|--4------------|--3------------|--1--|-
A----------------|---------------|---------------|-----|-
E----------------|---------------|---------------|-----|-


Riff 3
4x                 4x
E---9---9----9---||--||---8--8--8---||----------------------------------
B---9---9----9---||--||---8--8--8---||----------------------------------
G---10--10---10-*||--||*--9--9--9--*||----------------------------------
D---------------*||--||*-----------*||----------------------------------
A----------------||--||-------------||----------------------------------
E----------------||--||-------------||----------------------------------


Transcribed by T.C. Ireland
Email: UNH92@aol.com

========================================================================
==                       TABLATURE EXPLANATION                        ==
========================================================================

||------|| Repeat         --------
||*----*||                ---5^--- Bend
||*----*||                --------
||------||                --------   
https://primanota.ru/bowie-david/speed-of-life-chords.htm

Привет, гитарист!

Тебе подарок от сайта PrimaNota.ru

Забрать подарок
ВАМ ПОДАРКИ ОТ ПРОЕКТА
"ГИТАРНАЯ РЕВОЛЮЦИЯ"