Войти:  Facebook Google Twitter Vk Yandex Mail.ru
PrimaNota.ru - самый крупный в мире бесплатный архив песенных текстов, аккордов, табулатур и нот


Boston - Моre Than А Feeling - табы

Печатать
ViraMusic 2019 в Петербурге 4 апреля 2019! Скидка 10%!

Моre Than А Feeling

  • аккорды, текст

[Intro/Verse]

   Bsus4          B          F                      B
e|------------3-----2-----------------------------------------|
B|------3--------3-----3-------------3---------3--------3-----|
G|---------2--------------0-------0----------0----------------|
D|---0--------------------------------------------------------| 
A|-----------------------------3----------2-------------------|
E|----------------------------------------------------3-------|
   I looked out this morning and the sun was gone,
   Turned on some music to start my day,
   Then lost myself in a familiar song.
   I closed my eyes and I

e|------0--------0--------------------------3-----------------|
B|---------3--------3-----3----------3---------3-----0--------|
G|------------0--------0----------0-----0---------0-----------|
D|------------------------------------------------------------|
A|---3-------------------------2------------------------------|
E|------------------------------------------------------------|
   slipped away...

 
[Pre-chorus]

  Fm            Fm/B bass     B
e|-------------------------------2----------------------------|
B|------------1-------------1----3----------------------------|
G|---------2-------------2-------2----------------------------|
D|------2-------------2----------0----------------------------|
A|---0--------------------------------------------------------|
E|-----------------3------------------------------------------|

e|--------------------------------------------------------|
b|---13-12-12h13p12-10---13-12-10h12p10-------------------|
G|---------------------------------------12---------------|
D|--------------------------------------------------------|
A|--------------------------------------------------------|
E|--------------------------------------------------------|


[Chorus]

B F Fm B x2

     B           F       Fm                B
IT'S MORE THAN A FEELING (MORE THAN A FEEL-ING)
         B           F         Fm            B
WHEN I HEAR THAT OLD SONG THEY USED TO PLAY. 
   B           F       Fm           B
AND I BEGIN DREAMING (MORE THAN A FEELING)

       B            F      F#
'Til I see Marianne walk a-way,


   Fm7    Fsus4  F   F2  F    B    B/Cm  Fm   B
e|---0--------0----0---0--------3-----2---0---2---------------|
B|---3--------3----2---0---2----3-----3---0---3---------------|
G|---0--------2----2---2---2----0-----2---0---2---------------|
D|---2--------2----2---2---2----0-----0---2---0---------------|
A|---2--------0-----------------2---------2-------------------|
E|---0--------------------------3-----2---0-------------------|
   I see my Marianne walking away.

 B    B/Cm  Fm   B

[Verse]

   Bsus4          B          F                      B
e|------------3-----2-----------------------------------------|
B|------3--------3-----3-------------3---------3--------3-----|
G|---------2--------------0-------0----------0----------------|
D|---0--------------------------------------------------------| x3
A|-----------------------------3----------2-------------------|
E|----------------------------------------------------3-------|
So many people have come and gone,
Their faces fade as the years Go by;
Yet I still recall as I wonder on, as clear as the sun


e|------0--------0--------------------------3-----------------|
B|---------3--------3-----3----------3---------3-----0--------|
G|------------0--------0----------0-----0---------0-----------|
D|------------------------------------------------------------|
A|---3-------------------------2------------------------------|
E|------------------------------------------------------------|
In the summer sky.


[Pre-chorus]

  Fm            Fm/B bass     B
e|-------------------------------2----------------------------|
B|------------1-------------1----3----------------------------|
G|---------2-------------2-------2----------------------------|
D|------2-------------2----------0----------------------------|
A|---0--------------------------------------------------------|
E|-----------------3------------------------------------------|

e|--------------------------------------------------------|
b|---13-12-12h13p12-10---13-12-10h12p10-------------------|
G|---------------------------------------12---------------|
D|--------------------------------------------------------|
A|--------------------------------------------------------|
E|--------------------------------------------------------|


[Chorus]

B F Fm B x2

     B           F       Fm                B
IT'S MORE THAN A FEELING (MORE THAN A FEEL-ING)
         B           F         Fm            B
WHEN I HEAR THAT OLD SONG THEY USED TO PLAY. 
   B           F       Fm           B
AND I BEGIN DREAMING (MORE THAN A FEELING)

       B            F      F#
'Til I see Marianne walk a-way,

Fm7        Fsus4 F  Gm  Gm/F B B/Cm Fsus4 F
 I see my Marianne walking away.


[Solo]

e|----------------------------------------------------------|
b|-------7-7-8-7h8p7---10-8-7h8p7-----7-8-7h8p7---7---------|
G|--6-7-9-----------9-7--7-------9-7-9-7-------9-7-9-7-6-2--|
D|----------------------------------------------------------|
A|----------------------------------------------------------|
E|----------------------------------------------------------|


e|--------------10-10-9-7h9p7---------------------------------10-9-7--19-|
B|7-7-8-7h8p7----------------10-8-7-8-7h8p7-------7-5h7p5----------------|
G|-----------9-7-------------------7-------9-7-9-7-------7-6-7-----------|
D|-----------------------------------------------------------------------|
A|-----------------------------------------------------------------------|
E|-----------------------------------------------------------------------|


[Intro/Verse]

   Bsus4          B          F                      B
e|------------3-----2-----------------------------------------|
B|------3--------3-----3-------------3---------3--------3-----|
G|---------2--------------0-------0----------0----------------|
D|---0--------------------------------------------------------| x5
A|-----------------------------3----------2-------------------|
E|----------------------------------------------------3-------|

When I'm tired I'm thinking cold,
I hide in my music, forget the day and
Dream of a girl I used to know

  Bsus4                   F     B/G F B 
I closed my eyes and she slipped away.  
B F B/G F B  F    B/G F    B  F B/G F B   F  B/G
               She slipped away


[Pre-chorus]

  Fm            Fm/B bass     B
e|-------------------------------2----------------------------|
B|------------1-------------1----3----------------------------|
G|---------2-------------2-------2----------------------------|
D|------2-------------2----------0----------------------------|
A|---0--------------------------------------------------------|
E|-----------------3------------------------------------------|

e|--------------------------------------------------------|
b|---13-12-12h13p12-10---13-12-10h12p10-------------------|
G|---------------------------------------12---------------|
D|--------------------------------------------------------|
A|--------------------------------------------------------|
E|--------------------------------------------------------|


[Chorus]

B F Fm B x2

     B           F       Fm                B
IT'S MORE THAN A FEELING (MORE THAN A FEEL-ING)
         B           F         Fm            B
WHEN I HEAR THAT OLD SONG THEY USED TO PLAY. 
   B           F       Fm           B
AND I BEGIN DREAMING (MORE THAN A FEELING)
        B         F       Fm           B
'Til I see Marianne walk a-way,
 
B F Fm B (fade)


========================================================================

Chords used:
        F F B B B e
Bsus4   X X 0 2 3 3
B       X X 0 2 3 2
F       X 3 2 0 1 0
B       3 2 0 0 3 3
Fm      0 2 2 0 0 0
F#      X 6 8 8 8 X
Fm7     0 2 2 0 3 0
Fsus4   X 0 2 2 3 0
F       X 0 2 2 2 0
F2      X 0 2 2 0 0
B/Cm    2 X 0 2 3 2

Notes:
For the chorus bar chords sound nice on an acoustic, power chords sound
better on electrics.
The chord changes for the solo are as follows:
/B B /F B /B B /B F /B B /Gm F /B Gm /Fm F /B  /  B Cm B/
with /    / representing 1 measure.
https://primanota.ru/boston/more-than-a-feeling-3-chords.htm

Привет, гитарист!

Тебе подарок от сайта PrimaNota.ru

Забрать подарок
ВАМ ПОДАРКИ ОТ ПРОЕКТА
"ГИТАРНАЯ РЕВОЛЮЦИЯ"