» 
 » 
Its My Life



Bon Jovi - Its My Life - аккорды

Чайковский в рок-аранжировке! Очень необычно, послушай!
  • аккорды, текст
  • gtp-табы
  • ноты
Тональность: 
0
Масштаб: 
100%
Прокрутка: 
0
Проще!
Аппликатуры
Нотный режим
Its My Life
Bon Jovi
[ Предположительная тональность: G ]

IT?S MY LIFE by Bon Jovi
Standard tuning EADGBE
Capo 2nd  fret
Transcribed by joetormala

INTRO  Am     C       G   two times

e|------------------1---0----------------|
B|---1----------5--------1--1--1--0------|
G|---2-------5--------------2--------2---|
D|---2---/7-----------------3------------|
A|---------------------------------------|
E|---------------------------------------|

 VERSE 1

Am                    C                G
This ain't a song, for the broken-hearted.
Am                    C                G
No silent prayer, for the faith-departed.
Am                  C                   G
I ain't gonna be, just a face in the crowd.
Am                     C
You're gonna hear- my voice,
    C                 G
When I shout it out loud!

CHORUS

G   /  /      Am /     C  / / / / /   G /
It's ? my -  life -   It's now or never.
 Am                C         G
I ain't gonna live - for-ever !
Am                   C             G
I just want to live, while I'm alive!
 Am               C           G
My heart is like an open highway
Am                C             G
Like Frankie said, I did it my way.
Am                 C            G
I just wanna live, while I'm alive!
 G                  Am
It's ? my - life!

e|------------1---0--------------------|
B|---------5---------1--1--1--0--------|
G|------5---------------2---------2----|
D|--/7------------------3--------------|
A|-------------------------------------|
E|-------------------------------------|

VERSE 2

Am                        C              G
This is for the ones, who stood their ground.
Am                    C               G
For Tommy and Gina, who never backed down.
Am                       C              G
Tomorrow's getting harder, make no mistake.
Am                  C
Luck ain't- even lucky,
C                       G
Got to make your own breaks!

CHORUS

G   /  /      Am / C  / / / / /   G /
It's ? my - life, It's now or never.
 Am                C        G
I ain't gonna live-  for-ever !
Am                  C             G
I just want to live, while I'm alive!
 Am               C            G
My heart is like an open high-way.
Am                C             G
Like Frankie said, I did it my way.
Am                C             G
I just wanna live, while I'm alive!
 G          Am
It's- my- life!

e|------------1---0--------------------|
B|---------5---------1--1--1--0--------|
G|------5---------------2---------2----|
D|--/7------------------3--------------|
A|-------------------------------------|
E|-------------------------------------|

BRIDGE

Am                  C                       G
Better stand tall, when they're calling you out.
Am                      C                   G
Don't bend, don't break, baby, don't back down.

CHORUS -  two times

G            Am    C             G
It's ? my - life, It's now or never.
 Am                C          G
I ain't gonna live,  for-ever !
Am                 C               G
I just want to live, while I'm alive!
 Am                C            G
My heart is like an open high-way.
Am                C              G
Like Frankie said, I did it my way.
Am                C             G
I just wanna live, while I'm alive!
 G          Am
It's- my- life!

OUTRO

e|-----------1--0------------------1--0-------|
B|--------5-------1--------------5------1--1--|
G|------5-----------2----------5-----------2--|
D|---/7---------------------/7-------------2--|
A|--------------------------------------------|
E|--------------------------------------------|

Bon Jovi - Its My Life - ноты

(включить)
Другие материалы по этой песне:

https://primanota.ru/bon-jovi/its-my-life-chords.htm