Войти:  Facebook Google Twitter Vk Yandex Mail.ru
PrimaNota.ru - самый крупный в мире бесплатный архив песенных текстов, аккордов, табулатур и нот


Blink-182 - Making Of Down - табы, видео

Печатать
Лучшая metal-группа Петербурга

Making Of Down

  • аккорды и текст

This is the tab for that unknown riff in the, "Making of Down" video on YouTube, I might post a video of me
playing the riff if requested (in case someone needs help figuring out how to play it).


[Solo] 

Guitar 1 

e|---------------------------------------------------------------------------|
B|---------------------------------------------------------------------------|
G|---------------------------------------------------------------------------|
D|------4-----4-----0~-----------2-----4-----5~------------------------------|
A|2--2-----2-----2---------0--0-----0-----0----------------------------------| 
E|---------------------------------------------------------------------------| (3X)

e|---------------------------------------------------------------------------|
B|---------------------------------------------------------------------------|
G|---------------------------------------------------------------------------|
D|---------------------------------2-----4-----5~----------------------------|
A|------5--------5-----5-----0--0-----0-----0--------------------------------|
E|3--3-----3--3-----3--------------------------------------------------------|

e|---------------------------------------------------------------------------|
B|---------------------------------------------------------------------------|
G|---------------------------------------------------------------------------|
D|------7-----4--------5--------5-----4-----5----------------------4---------|
A|5--5-----5-----5--5-----5--5-----5-----5----------------5------------------|
E|--------------------------------------------------3--3-----3--3-----3------| 


************************************
 
| ~   Vibrato
 
************************************   
Другие материалы по этой песне:
  • Аккорды и текст

https://primanota.ru/blink-182-2/making-of-down-chords.htm

Привет, гитарист!

Тебе подарок от сайта PrimaNota.ru

Забрать подарок
ВАМ ПОДАРКИ ОТ ПРОЕКТА
"ГИТАРНАЯ РЕВОЛЮЦИЯ"