Войти:  Facebook Google Twitter Vk Yandex Mail.ru
PrimaNota.ru - самый крупный в мире бесплатный архив песенных текстов, аккордов, табулатур и нот


Blackmore's Night - Greensleeves - текст песни, табы

Печатать
ViraMusic 2019 в Петербурге 4 апреля 2019! Скидка 10%!

Greensleeves

  • аккорды, текст

Авторы музыки: [traditional]
Авторы текста: [traditional]
From: Lidokain vasilenko-a@yandex.ru

Greensleeves


Melody

E||-----------|------------|-------------|
B||-----------|--1----3----|--5----6--5--|
G||--------2--|------------|-------------|
D||-----------|------------|-------------|
A||-----------|--0---------|--3----------|
E||-----------|------------|-------------|



------------|-------------|------------|
--3---------|----------0--|--1---------|
-------4/---|--0----2-----|-------2----|
------------|-------------|------------|
------------|-------------|--0---------|
--3---------|--0----------|------------|



----------------|-------------|
----------------|-------------|
--2---1-2-1--2--|--4----1-----|
----------------|----------2--|
----------------|-------------|
--1-------------|--0----------|



---0-1-0-----------|------------|-------------|
---------3-1-0-----|--1----3----|--5----6--5--|
---------------2-1-|------------|-------------|
-------------------|------------|-------------|
-------------------|--0---------|--3----------|
-------------------|------------|-------------|



------------|-------------|----------------|
--3---------|----------0--|--1---0-1-0-----|
-------4/---|--0----2-----|-------------2--|
------------|-------------|----------------|
------------|-------------|--0-------------|
--3---------|--0----------|----------------|



---------------|-----------|-----------|
---------------|-----------|-----------|
--1--2-1----1--|--2--------|--2--------|
---------4-----|-----------|-----------|
---------------|--0--------|--0--------|
--0------------|-----------|-----------|



-------3----|--3---2-3-2--0--|------------|
------------|----------------|--3----0----|
------------|----------------|------------|
------------|----------------|------------|
--3---------|--3-------------|------------|
------------|----------------|--3---------|



-------------|------------|----------------|
----------0--|-------1----|----------------|
--0----2-----|------------|--2---1-2-1--2--|
-------------|------------|----------------|
-------------|--0---------|----------------|
--0----------|------------|--1-------------|



-------------|----------|-------3----|
-------------|----------|------------|
--4----1-----|----------|------------|
----------2--|----------|------------|
-------------|----------|--3---------|
--0----------|----------|------------|



--3---2-3-2--0--|------------|-------------|
----------------|--3----0----|----------0--|
----------------|------------|--0----2-----|
----------------|------------|-------------|
--3-------------|------------|-------------|
----------------|--3---------|--0----------|



----------------|---------------|-----------|
--1---0-1-0-----|---------------|-----------|
-------------2--|--1--2-1----1--|--2--------|
----------------|---------4-----|-----------|
--0-------------|---------------|--0--------|
----------------|--0------------|-----------|


Am  G   F     E
-----------|--0---3---1--|--0--------||
-----------|--1---3---1--|--0--------||
--2--------|--2---4---2--|--1--------||
-----------|--2---5---3--|--2--------||
--0--------|--0---5---0--|--2--------||
-----------|------3---1--|--0--------||   
https://primanota.ru/blackmores-night/greensleeves-chords.htm

Привет, гитарист!

Тебе подарок от сайта PrimaNota.ru

Забрать подарок
ВАМ ПОДАРКИ ОТ ПРОЕКТА
"ГИТАРНАЯ РЕВОЛЮЦИЯ"