Войти:  Facebook Google Twitter Vk Yandex Mail.ru
PrimaNota.ru - самый крупный в мире бесплатный архив песенных текстов, аккордов, табулатур и нот


Black Veil Brides - Smoke And Mirrors - текст песни, табы, видео

Печатать
Просмотров: 600
Лучшая metal-группа Петербурга

Smoke And Mirrors

  • аккорды и текст
  • gtp-табы

Note: This is not my tab, I looked at a GP tab and typed it up, so it'll be easier 
to read for some people. I am not taking credit for someone else's work.

Intro (Pt.1)

D#|------------------------------------------------------------|
A#|------------------------------------------------------------|
F#|------------------------------------------------------------|
C#|------------------------------------------------------------|
G#|------------------------------------------------------------|
C#|-2-0-2--0-2--0-2-0-2--0-2--0-2-0-2--0-2--0--2-5-5-5-7-7-7-7-|


Intro (Pt.2)

D#|------------------------------------------------------------|
A#|------------------------------------------------------------|
F#|------------------------------------------------------------|
C#|-2-0-2--0-2--0-2-0-2--0-2--0-2-0-2--0-2--0--2-5-5-5-7-7-7-7-|
G#|-2-0-2--0-2--0-2-0-2--0-2--0-2-0-2--0-2--0--2-5-5-5-7-7-7-7-|
C#|-2-0-2--0-2--0-2-0-2--0-2--0-2-0-2--0-2--0--2-5-5-5-7-7-7-7-|

D#|------------------------------------------------------------|----------------------|
A#|------------------------------------------------------------|-15~~~~-15~~~~-15~~~~-|
F#|------------------------------------------------------------|----------------------|
C#|-2-0-2--0-2--0-2-0-2--0-2--0-2-0-2--0-2--0------------------|----------------------|
G#|-2-0-2--0-2--0-2-0-2--0-2--0-2-0-2--0-2--0----------5-------|----------------------|
C#|-2-0-2--0-2--0-2-0-2--0-2--0-2-0-2--0-2--0--2-5-5-7---7-5-0-|----------------------|

The section below is tremolo picking 

D#|-10-12-15-12-10-12-15-12-10-12-15-12-10-12-15-12-|
A#|-------------------------------------------------|
F#|-------------------------------------------------| x2
C#|-------------------------------------------------|
G#|-------------------------------------------------|
C#|-------------------------------------------------|

D#|-15-14-12-14-15-14-12-14-15-14-12-14-15-14-12-14-|
A#|-------------------------------------------------|
F#|-------------------------------------------------|
C#|-------------------------------------------------|
G#|-------------------------------------------------|
C#|-------------------------------------------------|
Добавлено: 12.06.2013
Другие материалы по этой песне:

Страница создана 12.06.2013
https://primanota.ru/black-veil-brides/smoke-and-mirrors-chords.htm

Привет, гитарист!

Тебе подарок от сайта PrimaNota.ru

Забрать подарок
ВАМ ПОДАРКИ ОТ ПРОЕКТА
"ГИТАРНАЯ РЕВОЛЮЦИЯ"