Войти:  Facebook Google Twitter Vk Yandex Mail.ru
PrimaNota.ru - самый крупный в мире бесплатный архив песенных текстов, аккордов, табулатур и нот


Black Veil Brides - The Outsider - табы

Нотный режим - новая уникальная возможность на нашем сайте!
DROP C: C-G-C-F-A-D

listen to the song to the get the timing right 

this is not 100% correct 
i will be updating these tabs soon for solos and breakdown
send corrections to ievamalinauskaite613@gmail.com


[Intro]

D|------------------------------------------------------------------------------------|
A|--15--14--15--------15--14--15--20--18--------15--14--15--------15--14--15--20--17--|
F|------------------------------------------------------------------------------------|
C|------------------------------------------------------------------------------------|
G|------------------------------------------------------------------------------------|
C|------------------------------------------------------------------------------------|


D|--------------------------------------------------------------------------------|
A|--18--17--18--------18--17--18--23--22--20--------18-----20--18--20--20--18--20b|(Bend multiple times)
F|--------------------------------------------------------------------------------|
C|--------------------------------------------------------------------------------|
G|--------------------------------------------------------------------------------|
C|--------------------------------------------------------------------------------|


[Verse 1]
 (played 4 times, last 2 are palm muted) 

D|--------------------------------------------------------------------------------|
A|--------------------------------------------------------------------------------|
F|--------------------------------------------------------------------------------|
C|--0--0--------------------------------------0--0--------------------------------|
G|--0--0-----5--8--5-----5--8--5-----5--------0--0-----5--8--5-----5--8--5-----5--|
C|--0--0--7-----------7-----------7-----------0--0--7-----------7-----------7-----|


D|--------------------------------------------------------------------------------|
A|--------------------------------------------------------------------------------|
F|--------------------------------------------------------------------------------|
C|--8--8--------------------------------------------------------------------------|
G|--8--8-----5--8--5-----5--8--5-----5--7--5-----5--7--5-----4--7--4-----4--7--4--|
C|--8--8--8-----------8-----------7-----------7-----------7-----------7-----------|



[Chorus 1]
Same as the intro for lead guitar

rhythm:
D|--------------------------------------|
A|--------------------------------------|
F|--------------------------------------|
C|--0--------8--------5--------7--------|(x2) 
G|--0(x8)----8(x8)----5(x8)----7(x8)----|
C|--0--------8--------5--------7--------|



-----------------------
[verse 2] 
(played 4 times, last 2 are palm muted) 

D|--------------------------------------------------------------------------------|
A|--------------------------------------------------------------------------------|
F|--------------------------------------------------------------------------------|
C|--0--0--------------------------------------0--0--------------------------------|
G|--0--0-----5--8--5-----5--8--5-----5--------0--0-----5--8--5-----5--8--5-----5--|
C|--0--0--7-----------7-----------7-----------0--0--7-----------7-----------7-----|


D|--------------------------------------------------------------------------------|
A|--------------------------------------------------------------------------------|
F|--------------------------------------------------------------------------------|
C|--8--8--------------------------------------------------------------------------|
G|--8--8-----5--8--5-----5--8--5-----5--7--5-----5--7--5-----4--7--4-----4--7--4--|
C|--8--8--8-----------8-----------7-----------7-----------7-----------7-----------|

-----------------------


Same as the intro for lead guitar

rhythm:
D|--------------------------------------|
A|--------------------------------------|
F|--------------------------------------|
C|--0--------8--------5--------7--------| (x2) 
G|--0(x8)----8(x8)----5(x8)----7(x8)----|
C|--0--------8--------5--------7--------|


-----------------------
breakdown type thing
-----------------------
solo 1
-----------------------
repeat  intro once

D|------------------------------------------------------------------------------------|
A|--15--14--15--------15--14--15--20--18--------15--14--15--------15--14--15--20--17--|
F|------------------------------------------------------------------------------------|
C|------------------------------------------------------------------------------------|
G|------------------------------------------------------------------------------------|
C|------------------------------------------------------------------------------------|


D|--------------------------------------------------------------------------------|
A|--18--17--18--------18--17--18--23--22--20--------18-----20--18--20--20--18--20b|(Bend multiple times)
F|--------------------------------------------------------------------------------|
C|--------------------------------------------------------------------------------|
G|--------------------------------------------------------------------------------|
C|--------------------------------------------------------------------------------|

-----------------------

[Chorus 3] 
Same as the intro for lead guitar

rhythm:
D|--------------------------------------|
A|--------------------------------------|
F|--------------------------------------|
C|--0--------8--------5--------7--------| (x2) 
G|--0(x8)----8(x8)----5(x8)----7(x8)----|
C|--0--------8--------5--------7--------|


-----------------------
solo 2
-----------------------
outro
-----------------------
 


***********************************
(/) Slide Up  
(\) Slide Down  
(h) Hammer On  
(p) Pull Off  
(b) Bend 
(r) Release 
(v) Vibrato
***********************************   

Black Veil Brides - The Outsider - ноты

(включить)
Другие материалы по этой песне:

https://primanota.ru/black-veil-brides/outsider-chords.htm

Привет, гитарист!

Тебе подарок от сайта PrimaNota.ru

Забрать подарок
ВАМ ПОДАРКИ ОТ ПРОЕКТА
"ГИТАРНАЯ РЕВОЛЮЦИЯ"