Войти:  Facebook Google Twitter Vk Yandex Mail.ru
PrimaNota.ru - самый крупный в мире бесплатный архив песенных текстов, аккордов, табулатур и нот


Black Veil Brides - Let You Down - бас-таба

Печатать
ViraMusic 2019 в Петербурге 4 апреля 2019! Скидка 10%!

Let You Down


Hard to hear at parts



F|-----------------------------------------------------------------|
C|-----------------------------------------------------------------|
G|-2-2-------------2-2---------------------------------------------|
C|---------------------------------6-6-------------6-6-------------|
   1 + 2 + 3 + 4 + 1 + 2 + 3 + 4 + 1 + 2 + 3 + 4 + 1 + 2 + 3 + 4 +

F|-----------------------------------------------------------------|
C|-----------------------------------------------------------------|
G|-----------------0-0-------------2-2-----------------4-7-5---4---|
C|-5-5---------------------------------------------4-7-------------|
   1 + 2 + 3 + 4 + 1 + 2 + 3 + 4 + 1 + 2 + 3 + 4 + 1 + 2 + 3 + 4 +

0:11
F|-----------------------------------------------------------------|
C|-----------------------------------------------------------------|
G|-2-2-2-2---2-2---2-2-2-2-2-2-2-2---------------------------------|
C|---------------------------------6-6-6-6---6-6---6-6-6-6-6-6-6-6-|
   1 + 2 + 3 + 4 + 1 + 2 + 3 + 4 + 1 + 2 + 3 + 4 + 1 + 2 + 3 + 4 +

F|-----------------------------------------------------------------|
C|-----------------------------------------------------------------|
G|-----------------0-0-0-0-0-0-0-0-2-2-2-2---2-2-----------4---5-4-|
C|-5-5-5-5---5-5-----------------------------------4-7-7-4---7-----|
   1 + 2 + 3 + 4 + 1 + 2 + 3 + 4 + 1 + 2 + 3 + 4 + 1 + 2 + 3 + 4 +

Verse 0:23
F|-----------------------------------------------------------------|
C|---------------------------------------------------------2-4-2-0-|
G|-2-2-2-2-2-2-2-2-2-2-2-2-2-2-2-2---------------------------------|
C|---------------------------------6-6-6-6-6-6-6-6-2-2-2-2---------|
   1 + 2 + 3 + 4 + 1 + 2 + 3 + 4 + 1 + 2 + 3 + 4 + 1 + 2 + 3 + 4 +

F|-----------------------------------------------------------------|
C|-------------------------------------------------------------0-2-|
G|-2-2-2-2-2-2-2-2-2-2-2-2-2-2-2-2-------------------------2-4-----|
C|---------------------------------6-6-6-6-6-6-6-6-2-2-2-2---------|
   1 + 2 + 3 + 4 + 1 + 2 + 3 + 4 + 1 + 2 + 3 + 4 + 1 + 2 + 3 + 4 +

F|-----------------------------------------------------------------|
C|-----------------------------------------------------2---2---0---|
G|-2-2-2-2-2-2-2-2-2-2-2-2-2-2-2-2-------------------------------4-|
C|---------------------------------6-6-6-6-6-6-6-6-2-2---2---------|
   1 + 2 + 3 + 4 + 1 + 2 + 3 + 4 + 1 + 2 + 3 + 4 + 1 + 2 + 3 + 4 +

F|-----------------------------------------------------------------|
C|-------------------------------------------------------------0-2-|
G|-2-2-2-2-2-2-2-2-2-2-2-2-2-2-2-2-------------------------2-4-----|
C|---------------------------------6-6-6-6-6-6-6-6-2-2-2-2---------|
   1 + 2 + 3 + 4 + 1 + 2 + 3 + 4 + 1 + 2 + 3 + 4 + 1 + 2 + 3 + 4 +

Pre Chorus 0:48
F|--------------------------------------------------|
C|--------------------------------------------------|
G|--------------------------------------------------|
C|-5-5-5-5-5-5-5-5-4-4-4-4-7-7-4-4------------------|
   1 + 2 + 3 + 4 + 1 + 2 + 3 + 4 + 1 + 2 + 3 + 4 + 

Chorus 0:52
F|-----------------------------------------------------------------|
C|-----------------------------------------------------------------|
G|-2-2-2-2-2-2-2-2-2-2-2-2-4-4-5-5-------------------------4-4-5-5-|
C|---------------------------------6-6-6-6-6-6-6-6-6-6-6-6---------|
   1 + 2 + 3 + 4 + 1 + 2 + 3 + 4 + 1 + 2 + 3 + 4 + 1 + 2 + 3 + 4 +

F|-----------------------------------------------------------------|
C|-----------------------------------------------------------------|
G|-----------------0-0-0-0-0-0-0-0-2-2-2-2-2-2-2-2-----4---5---4---|
C|-5-5-5-5-5-5-5-5---------------------------------4-7---7---7---7-|
   1 + 2 + 3 + 4 + 1 + 2 + 3 + 4 + 1 + 2 + 3 + 4 + 1 + 2 + 3 + 4 +

F|-----------------------------------------------------------------|
C|-----------------------------------------------------------------|
G|-2-2-2-2-2-2-2-2-2-2-2-2-4-4-5-5-------------------------4-4-5-5-|
C|---------------------------------6-6-6-6-6-6-6-6-6-6-6-6---------|
   1 + 2 + 3 + 4 + 1 + 2 + 3 + 4 + 1 + 2 + 3 + 4 + 1 + 2 + 3 + 4 +

F|-----------------------------------------------------------------|
C|-----------------------------------------------------------------|
G|-----------------0-0-0-0-0-0-0-0-2-2-2-2-2-2-2-2-----4---5---4---|
C|-5-5-5-5-5-5-5-5---------------------------------4-7---7---------|
   1 + 2 + 3 + 4 + 1 + 2 + 3 + 4 + 1 + 2 + 3 + 4 + 1 + 2 + 3 + 4 +

Interlude 1:16
F|-----------------------------------------------------------------|
C|---------------------------------------------------------2-2-0---|
G|-2-2-2-2-2-2-2-2-2-2-2-2-2-2-2-2-------------------------------4-|
C|---------------------------------6-6-6-6-6-6-6-6-2-2-2-2---------|
   1 + 2 + 3 + 4 + 1 + 2 + 3 + 4 + 1 + 2 + 3 + 4 + 1 + 2 + 3 + 4 +

Verse 1:22
F|-----------------------------------------------------------------|
C|---------------------------------------------------------2-4-2-0-|
G|-2-2-2-2-2-2-2-2-2-2-2-2-2-2-2-2---------------------------------|
C|---------------------------------6-6-6-6-6-6-6-6-2-2-2-2---------|
   1 + 2 + 3 + 4 + 1 + 2 + 3 + 4 + 1 + 2 + 3 + 4 + 1 + 2 + 3 + 4 +

F|-----------------------------------------------------------------|
C|-------------------------------------------------------------0-2-|
G|-2-2-2-2-2-2-2-2-2-2-2-2-2-2-2-2-------------------------2-4-----|
C|---------------------------------6-6-6-6-6-6-6-6-2-2-2-2---------|
   1 + 2 + 3 + 4 + 1 + 2 + 3 + 4 + 1 + 2 + 3 + 4 + 1 + 2 + 3 + 4 +

F|-----------------------------------------------------------------|
C|-----------------------------------------------------2---2---0---|
G|-2-2-2-2-2-2-2-2-2-2-2-2-2-2-2-2-------------------------------4-|
C|---------------------------------6-6-6-6-6-6-6-6-2-2---2---------|
   1 + 2 + 3 + 4 + 1 + 2 + 3 + 4 + 1 + 2 + 3 + 4 + 1 + 2 + 3 + 4 +

F|-----------------------------------------------------------------|
C|-----------------------------------------------------------------|
G|-2-2-2-2-2-2-2-2-2-2-2-2-2-2-2-2---------------------------------|
C|---------------------------------6-6-6-6-6-6-6-6-2-2-2-2-5-5-5-5-|
   1 + 2 + 3 + 4 + 1 + 2 + 3 + 4 + 1 + 2 + 3 + 4 + 1 + 2 + 3 + 4 +

Pre Chorus 1:47
F|-------------------------------------------------|
C|-------4-5-4-------------4-5-4---------5-4-------|
G|---4-7-------7-5---4-7-4-------7---4-7-----7-5-4-|
C|-5---------------5---------------5---------------|
   1 + 2 + 3 + 4 + 1 + 2 + 3 + 4 + 1 + 2 + 3 + 4 +

Chorus 1:51
F|-----------------------------------------------------------------|
C|-----------------------------------------------------------------|
G|-2-2-2-2-2-2-2-2-2-2-2-2-4-4-5-5-------------------------4-4-5-5-|
C|---------------------------------6-6-6-6-6-6-6-6-6-6-6-6---------|
   1 + 2 + 3 + 4 + 1 + 2 + 3 + 4 + 1 + 2 + 3 + 4 + 1 + 2 + 3 + 4 +

F|-----------------------------------------------------------------|
C|-----------------------------------------------------------------|
G|-----------------0-0-0-0-0-0-0-0-2-2-2-2-2-2-2-2-----4---5---4---|
C|-5-5-5-5-5-5-5-5---------------------------------4-7---7---7---7-|
   1 + 2 + 3 + 4 + 1 + 2 + 3 + 4 + 1 + 2 + 3 + 4 + 1 + 2 + 3 + 4 +

F|-----------------------------------------------------------------|
C|-----------------------------------------------------------------|
G|-2-2-2-2-2-2-2-2-2-2-2-2-4-4-5-5-------------------------4-4-5-5-|
C|---------------------------------6-6-6-6-6-6-6-6-6-6-6-6---------|
   1 + 2 + 3 + 4 + 1 + 2 + 3 + 4 + 1 + 2 + 3 + 4 + 1 + 2 + 3 + 4 +

F|-----------------------------------------------------------------|
C|-----------------------------------------------------------------|
G|-----------------0-0-0-0-0-0-0-0-2-2-2-2-2-2-2-2-----4---5---4---|
C|-5-5-5-5-5-5-5-5---------------------------------4-7---7---------|
   1 + 2 + 3 + 4 + 1 + 2 + 3 + 4 + 1 + 2 + 3 + 4 + 1 + 2 + 3 + 4 +

2:14
F|-------------------------7---6---|
C|---------------------------------|
G|-----4---5---4-------7-4---------|
C|-4-7---7---------4-7-------------|
   1 + 2 + 3 + 4 + 1 + 2 + 3 + 4 + 

Bridge 2:17
F|-----------------------------------------------------------------|
C|-----------------------------------------------------------------|
G|-2-2-2-2-2-2-2-2-------------------------------------------------|
C|-----------------4-4-4-4-4-4-4-4-5-5-5-5-5-5-5-5-7-7-7-7-7-7-7-7-|
   1 + 2 + 3 + 4 + 1 + 2 + 3 + 4 + 1 + 2 + 3 + 4 + 1 + 2 + 3 + 4 +

F|-----------------------------------------------------------------|
C|-----------------------------------------------------------------|
G|-2-2-2-2-2-2-2-2-------------------------------------------------|
C|-----------------4-4-4-4-4-4-4-4-5-5-5-5-5-5-5-5-7-7-7-7-7-\-4---|
   1 + 2 + 3 + 4 + 1 + 2 + 3 + 4 + 1 + 2 + 3 + 4 + 1 + 2 + 3 + 4 +

F|-----------------------------------------------------------------|
C|-----------------------------------------------------------------|
G|-2-2-2-2-2-2-2-2-------------------------------------------------|
C|-----------------4-4-4-4-4-4-4-4-5-5-5-5-5-5-5-5-7-7-7-7-7-7-7-7-|
   1 + 2 + 3 + 4 + 1 + 2 + 3 + 4 + 1 + 2 + 3 + 4 + 1 + 2 + 3 + 4 +

F|-----------------------------------------------------------------|
C|-----------------------------------------------------------------|
G|-2-2-2-2-2-2-2---------------------------------------------------|
C|-----------------4-4-4-4-4-4-4---5-5-5-5-5-5-5---7-7-7-7-7-7-7-7-|
   1 + 2 + 3 + 4 + 1 + 2 + 3 + 4 + 1 + 2 + 3 + 4 + 1 + 2 + 3 + 4 +

F|---------------------------------|
C|---------------------------------|
G|---------------------------------|
C|-4-r-----------------------------|
   1 + 2 + 3 + 4 + 1 + 2 + 3 + 4 + 

Solo 2:45
F|-----------------------------------------------------------------|
C|-----------------------------------------------------------------|
G|-2-2-2-2-2-2-2-2-2-2-2-2-2-2-2-2---------------------------------|
C|---------------------------------6-6-6-6-6-6-6-6-6-6-6-6-6-6-6-6-|
   1 + 2 + 3 + 4 + 1 + 2 + 3 + 4 + 1 + 2 + 3 + 4 + 1 + 2 + 3 + 4 +

F|-----------------------------------------------------------------|
C|-----------------------------------------------------------------|
G|-----------------0-0-0-0-0-0-0-0-2-2-2-2-2-2-2-2-----4---5-------|
C|-5-5-5-5-5-5-5-5---------------------------------4-7---7---------|
   1 + 2 + 3 + 4 + 1 + 2 + 3 + 4 + 1 + 2 + 3 + 4 + 1 + 2 + 3 + 4 +

Chorus 2:57
F|-----------------------------------------------------------------|
C|-----------------------------------------------------------------|
G|-2-r-------------------------5-5-------------------------4-4-5-5-|
C|---------------------------------6-6-6-6-6-6-6-6-6-6-6-6---------|
   1 + 2 + 3 + 4 + 1 + 2 + 3 + 4 + 1 + 2 + 3 + 4 + 1 + 2 + 3 + 4 +

F|-----------------------------------------------------------------|
C|-----------------------------------------------------------------|
G|-----------------0-0-0-0-0-0-0-0-2-2-2-2-2-2-2-2-----4---5---4---|
C|-5-5-5-5-5-5-5-5---------------------------------4-7---7---------|
   1 + 2 + 3 + 4 + 1 + 2 + 3 + 4 + 1 + 2 + 3 + 4 + 1 + 2 + 3 + 4 +

F|-----------------------------------------------------------------|
C|-----------------------------------------------------------------|
G|-2-2-2-2-2-2-2-2-2-2-2-2-4-4-5-5-------------------------4-4-5-5-|
C|---------------------------------6-6-6-6-6-6-6-6-6-6-6-6---------|
   1 + 2 + 3 + 4 + 1 + 2 + 3 + 4 + 1 + 2 + 3 + 4 + 1 + 2 + 3 + 4 +

F|-----------------------------------------------------------------|
C|-----------------------------------------------------------------|
G|-----------------0-0-0-0-0-0-0-0-2-2-2-2-2-2-2-2-----4-7-5---4---|
C|-5-5-5-5-5-5-5-5---------------------------------4-7-------------|
   1 + 2 + 3 + 4 + 1 + 2 + 3 + 4 + 1 + 2 + 3 + 4 + 1 + 2 + 3 + 4 +

3:20
F|-----------------------------------------------------------------|
C|---------4-4-------------4-4-------------------------------------|
G|-----4-------7-7-----4-------7-7-----4-7-5-5-4-4-2---------------|
C|-4-7---7---------4-7---7---------4-7-----------------------------|
   1 + 2 + 3 + 4 + 1 + 2 + 3 + 4 + 1 + 2 + 3 + 4 + 1 + 2 + 3 + 4 +

Tabbed by Dave Vucko
   
https://primanota.ru/black-veil-brides/let-you-down-chords.htm

Привет, гитарист!

Тебе подарок от сайта PrimaNota.ru

Забрать подарок
ВАМ ПОДАРКИ ОТ ПРОЕКТА
"ГИТАРНАЯ РЕВОЛЮЦИЯ"