Войти:  Facebook Google Twitter Vk Yandex Mail.ru
PrimaNota.ru - самый крупный в мире бесплатный архив песенных текстов, аккордов, табулатур и нот


Billy Ray Cyrus - Get Real Gone - бас-таба, видео

Печатать
Лучшая metal-группа Петербурга

Get Real Gone

  • аккорды и текст

G|----------------------------(X12-|
D|------6-6-8-8--------6-6---------|
A|--8-8------------8-8-----6-6-----|
E|---------------------------------|

G|-------------------------------|
D|-------6~---8~--------6~-------|
A|--8~-------------8~--------6~--|
E|-------------------------------|

G|-----------------------------|
D|------6-6-8-8--------6-6-----|(For the rest of the song)
A|--8-8------------8-8-----6-6-|
E|-----------------------------|

 i think this is right not sure
but what ever i tried   
Добавлено: 05.07.2012
Другие материалы по этой песне:
  • Аккорды и текст

Страница создана 05.07.2012
https://primanota.ru/billy-ray-cyrus/get-real-gone-chords.htm

Привет, гитарист!

Тебе подарок от сайта PrimaNota.ru

Забрать подарок
ВАМ ПОДАРКИ ОТ ПРОЕКТА
"ГИТАРНАЯ РЕВОЛЮЦИЯ"