» 
 » 
Let You Go



Beulahbelle - Let You Go - аккорды

Чайковский в рок-аранжировке! Очень необычно, послушай!
Тональность: 
0
Масштаб: 
100%
Прокрутка: 
0
Проще!
Аппликатуры
Нотный режим
Let You Go
Beulahbelle
[ Предположительная тональность: G ]

[Verse 1]
I never knew
That my life would be changing in view
The water was cold
Ice, ice cold
I was thinkin' of you

[Chorus]
I can build you a boat
Or be the whale that guides you
I can be the wave
I can be the one that holds you
Holds you

[Verse 2]
I didn't know
That I needed to let you go
And I can keep your eyes
But it's better to say goodbye
So just float away, into my arms and stay
Oooh

[Chorus]
I can build you a boat
Or be the whale that guides you
I can be the wave
I can be the one that holds you
Holds you


Табулатура:

 G  --------------------          
 B  -------------0-----
 C  ----------1---------  [1]
 C  ----2-------2-------
 G  --------------------
 G  --0----0------------


 G  --------------------
 B  -------------0-----
 C  ----------1---------  [2]
 C  ----1--------1-------
 G  --------------------
 G  --0----0------------



 G --------------------
 B  -------------2-----
 C  ----------1---------  [3]
 C  ----2-------2-------
 G  --0----0------------
 G  ------------------


 G  --------------------
 B  -------------0-----
 C  ----------1---------  [4]
 C  ----2-------2-------
 G  --------------------
 G  --0----0------------


 G  --------------------
 B  -------------0-----
 C  ----------1---------  [5]
 C  ----2-------2-------
 G  --0----0------------
 G  ------------------

Цифры справа служат номером перебора, после количество раз, которое нужно сыграть. Например [1]- 4  раза; [3]-3 раза.

 Вступление: [1]- 4 раза.


Куплет:
1.  ([1]-2 раза;[2]-2 раза;[3]-3 раза;[4]-1 раз) = играем эту партию 4 раза.
2.  После [1]- играем 4 раза и снова ([1]-2 раза;[2]-2 раза;[3]-3 раза;[4]-1 раз) = играем эту партию 2 раза.
3.  [5]- 4 раза; [1]- 4 раза; снова ([1]-2 раза;[2]-2 раза;[3]-3 раза;[4]-1 раз) = играем эту партию 2 раза. [1]- 4 раза.

Третья часть:

 G  --------------------          
 B  -------------0-----
 C  ----------1---------
 C  ----2-------2-------
 G  --------------------
 G  --2----2------------


 G  --------------------          
 B  -------------0-----
 C  ----------1---------  [1]
 C  ----2-------2-------
 G  --------------------
 G  --0----0------------

 G  --------------------          
 B  --------------------
 C  -----1-----1-----1----
 C  ---------------------
 G  --------------------
 G  --0----4------2------

Четвертую часть играем 6 раз:

 G  --------------------          
 B  --------------------
 C  -------1---1-----1----
 C  -----2--------2-------
 G  --------------------
 G  --0------0----------

 G  --------------------          
 B  --------------------
 C  -------1---1-----1----
 C  -----2--------2-------
 G  --------------------
 G  --2------2----------

 G  --------------------          
 B  --------------------
 C  -------1---1-----1----
 C  -----2--------2-------
 G  --------------------
 G  --0------0----------

 G  --------------------          
 B  --------------------
 C  -------1---1-----1----
 C  -----2---------------
 G  --------------------
 G  --0------4----2------

Beulahbelle - Let You Go - ноты

(включить)
https://primanota.ru/beulahbelle/let-you-go.htm

Привет, гитарист!

Тебе подарок от сайта PrimaNota.ru

Забрать подарок
ВАМ ПОДАРКИ ОТ ПРОЕКТА
"ГИТАРНАЯ РЕВОЛЮЦИЯ"