Войти:  Facebook Google Twitter Vk Yandex Mail.ru
PrimaNota.ru - самый крупный в мире бесплатный архив песенных текстов, аккордов, табулатур и нот


Ben Howard - The Wolves Live - табы

Печатать
ViraMusic 2019 в Петербурге 4 апреля 2019! Скидка 10%!

The Wolves Live

  • аккорды, текст

Artist: Ben Howard
Title: The Wolves    

-Capo 3rd fret
-Standard tuning 


Intro and verse til Chorus

"Singlenote" Intro

E|--------|--------|
B|--------|--------|
G|--------|--------|
D|---7~---|---5~---|
A|--------|--------|
E|--------|--------|


Main intro 

E|------5----------|-----5------------|----------3------|---------3--------|
B|--------8-5---5--|-------8-5---5----|------3-5---5-3--|-----3-5---5-3----|
G|------------7----|-----------7------|-----------------|------------------|
D|---7----7-7-7-7--|--7----7-7-7-7----|---5----5-5-5-5--|--5----5-5-5-5----|
A|-----------------|------------------|-----------------|------------------|
E|-----------------|------------------|-----------------|------------------|
 

Verse
E|------5----------|-----5------------|----------3------|---------3--------|
B|--------8-5---5--|-------8-5---5----|------3-5---5-3--|-----3-5---5-3----|
G|------------7----|-----------7------|-----------------|------------------|
D|-----------------|------------------|-----------------|------------------|
A|-----------------|------------------|-----------------|------------------|
E|---5----5-5-5-5--|--5----5-5-5-5----|---3----3-3-3-3--|--3----3-3-3-3----|
 

Bridge/ Chorus

  F                                  A
We lost faith, in the arms of love.





Notice: Of course, you also can play these tabs without capodaster... but Ben Howard does it!

greets



tab by S.Slavik   
https://primanota.ru/ben-howard/the-wolves-live-chords.htm

Привет, гитарист!

Тебе подарок от сайта PrimaNota.ru

Забрать подарок
ВАМ ПОДАРКИ ОТ ПРОЕКТА
"ГИТАРНАЯ РЕВОЛЮЦИЯ"