Войти:  Facebook Google Twitter Vk Yandex Mail.ru
PrimaNota.ru - самый крупный в мире бесплатный архив песенных текстов, аккордов, табулатур и нот


Beirut - So Allowed - табы

Печатать
ViraMusic 2019 в Петербурге 4 апреля 2019! Скидка 10%!

So Allowed

  • аккорды, текст

-------------------------------------------------------------------------------
                             So Allowed - Beirut
-------------------------------------------------------------------------------
Tabbed by:majorseventh
E-mail:cwarner3000@gmail.com

Tuning:Standard EADGBe

0:09
    E           F#m         D           Bm
e|---------------------------------------------------------------------------|
B|----------------2-2---2-2--------------------------------------------------|
G|----1-1---1-1---2-2---2-2---2-2---2-2---4-4----4-4-------------------------|
D|----2-2---2-2---------------4-4---4-4---4-4----4-4-------------------------|
A|--------------------------5-----5-----2------2-----------------------------|
E|--0-----0-----2-----2------------------------------------------------------|

0:44
    E           F#m         D           Bm
e|----------------------0-0--------------------------------------------------|
B|----------------2-2---2-2---------------3-3---3-3--------------------------|
G|----1-1---1-1---2-2---------2-2---2-2---4-4---4-4--------------------------|
D|----2-2---2-2---------------4-4---4-4--------------------------------------|
A|--------------------------5-----5-----2-----2------------------------------|
E|--0-----0-----2-----2------------------------------------------------------|



E         F#m D   Bm
Under the sun sleeping
E         F#m    D  Bm
So we'd rehearse evenings
E               F#m  D   Bm
It was in every word somehow
E              F#m  D   Bm
And I was in return so allowed

E         F#m D   Bm

E         F#m   D   Bm
How we began to see things
E         F#m    D     Bm
Seems in reverse sweetening
E               F#m  D   Bm
It was in every word somehow
E             F#m   D   Bm
And I was in return so allowed

E         F#m D   Bm

E         F#m        D   Bm
I want to say you're mine
E         F#m           D   Bm
Oh I want to say you're mine
E         F#m        D   Bm
I want to say you're mine
E         F#m           D   Bm
Oh I want to say you're mine

E   F#m D   Bm
E   F#m D   Bm
E   F#m D   Bm
E   F#m D   Bm
   
https://primanota.ru/beirut/so-allowed-chords.htm

Привет, гитарист!

Тебе подарок от сайта PrimaNota.ru

Забрать подарок
ВАМ ПОДАРКИ ОТ ПРОЕКТА
"ГИТАРНАЯ РЕВОЛЮЦИЯ"