Войти:  Facebook Google Twitter Vk Yandex Mail.ru
PrimaNota.ru - самый крупный в мире бесплатный архив песенных текстов, аккордов, табулатур и нот


Bears Den - New Jerusalem - табы

Печатать
Лучшая metal-группа Петербурга

New Jerusalem

  • аккорды, текст

Авторы: Bear's Den

-------------------------------------------------------------------------------
                          BEAR'S DEN - New Jerusalem
-------------------------------------------------------------------------------
Tabbed by: luffacoustic
Artist: Bear's Den. Album: Red Earth & Pouring Rain. Song: New Jerusalem.
Tuning: DADF#Ad, capo on 5th.
This core guitar part just repeats the whole way through coming in and out of
the mix, making this a very simple tab.


D |-------0---------2-----0---------------0---------2-----0-------------------|
A |---------------------------0-------------------------------0---------------|
F#|---------------3-------------------------------3---------------------------|
D |-----0-------0-------0-------0-------0-------0-------0-------0-------------|
A |---------------------------------0-------0-------0-------0-----------------|
D |-0-------0-------0-------0-------------------------------------------------|


D |-------0---------2-----0---------------0---------2-----0-------------------|
A |---------------------------0-------------------------------0---------------|
F#|---------------3-------------------------------3---------------------------|
D |-----0-------0-------0-------0-------0-------0-------0-------0-------------|
A |-2-------2-------2-------2-------------------------------------------------|
D |---------------------------------2-------2-------2-------2-----------------|   
https://primanota.ru/bears-den/new-jerusalem-chords.htm

Привет, гитарист!

Тебе подарок от сайта PrimaNota.ru

Забрать подарок
ВАМ ПОДАРКИ ОТ ПРОЕКТА
"ГИТАРНАЯ РЕВОЛЮЦИЯ"