Войти:  Facebook Google Twitter Vk Yandex Mail.ru
PrimaNota.ru - самый крупный в мире бесплатный архив песенных текстов, аккордов, табулатур и нот


Bay City Rollers - I Only Want to be With You - текст песни, бас-таба

Печатать
Лучшая metal-группа Петербурга

I Only Want to be With You

  • аккорды, текст

Авторы: Mike Hawker, Ivor Raymonde

--------------------------------------------------------------------------
                            Artist - Bay City Rollers
                          ****************************
                        Song - I Only Want To Be With You
                       ***********************************
                              Tabbed By - Ayreon77
                             **********************
--------------------------------------------------------------------------
Tuning = Standard             



INTRO
******
G|---------|---------|---------|---------|
D|---------|---------|---------|---------|
A|-5-5-----|-5-5-----|-2-2-----|-2-2-----|
E|-----7-5-|-----7-5-|-----3-2-|-----3-2-|X8


-----------------------
00:18
VERSE 1
********
G|---------|---------|---------|---------|
D|---------|---------|---------|---------|
A|-5-5-----|-5-5-----|-2-2-----|-2-2-----|
E|-----7-5-|-----7-5-|-----3-2-|-----3-2-|X2


G|-----------|-----------|---------|---------|---------|---------|
D|-----------|-----------|---------|---------|---------|---------|
A|-----------|-----------|-5-5-----|-5-5-----|-2-2-----|-2-2-----|
E|-3---3-5-5-|-3---3-5-5-|-----7-5-|-----7-5-|-----3-2-|-----3-2-|

00:33
G|-----------|-----------|
D|-5-4-5-6-7-|-5--5-7--7-|
A|-----------|-----------|
E|-----------|-----------|


-----------------------
00:38
BREAK
******
G|---------|---------|---------|---------|
D|---------|---------|---------|---------|
A|-5-5-----|-5-5-----|-2-2-----|-2-2-----|
E|-----7-5-|-----7-5-|-----3-2-|-----3-2-|X2


-----------------------
00:45
VERSE 2
********
G|---------|---------|---------|---------|
D|---------|---------|---------|---------|
A|-5-5-----|-5-5-----|-2-2-----|-2-2-----|
E|-----7-5-|-----7-5-|-----3-2-|-----3-2-|X2


G|-----------|-----------|---------|---------|---------|---------|
D|-----------|-----------|---------|---------|---------|---------|
A|-----------|-----------|-5-5-----|-5-5-----|-2-2-----|-2-2-----|
E|-3---3-5-5-|-3---3-5-5-|-----7-5-|-----7-5-|-----3-2-|-----3-2-|

01:00
G|-----------|-------------|
D|-5-4-5-6-7-|-5--5-7--7---|
A|-----------|-----------5-|
E|-----------|-------------|


-----------------------
01:06
BRIDGE
*******
G|---------|---------------3-----|-----------|---------|------------------------------------|
D|---------|--------3--3-5---5-3-|------5----|---------|---------------------------7----7---|
A|-5-4-2-1-|-1-5--5--------------|-5--5----5-|-5-4-2-1-|-1-5--5-7--7-9-9------7--7----7---7-|
E|---------|---------------------|-----------|---------|-----------------7--7---------------|


-----------------------
01:21
VERSE 3
********
G|---------|---------|---------|---------|
D|---------|---------|---------|---------|
A|-5-5-----|-5-5-----|-2-2-----|-2-2-----|
E|-----7-5-|-----7-5-|-----3-2-|-----3-2-|X2


G|-----------|-----------|---------|---------|---------|---------|
D|-----------|-----------|---------|---------|---------|---------|
A|-----------|-----------|-5-5-----|-5-5-----|-2-2-----|-2-2-----|
E|-3---3-5-5-|-3---3-5-5-|-----7-5-|-----7-5-|-----3-2-|-----3-2-|

01:36
G|-----------|-------------|
D|-5-4-5-6-7-|-5--5-7--7-7-|
A|-----------|-------------|
E|-----------|-------------|


-----------------------
01:41
BREAK
******
G|---------|---------|---------|---------|
D|---------|---------|---------|---------|
A|-5-5-----|-5-5-----|-2-2-----|-2-2-----|
E|-----7-5-|-----7-5-|-----3-2-|-----3-2-|X2


-----------------------
01:48
VIOLIN
*******
G|---------|---------|---------|---------|
D|---------|---------|---------|---------|
A|-5-5-----|-5-5-----|-2-2-----|-2-2-----|
E|-----7-5-|-----7-5-|-----3-2-|-----3-2-|X2


G|-----------|-----------|---------|---------|---------|---------|
D|-----------|-----------|---------|---------|---------|---------|
A|-----------|-----------|-5-5-----|-5-5-----|-2-2-----|-2-2-----|
E|-3---3-5-5-|-3---3-5-5-|-----7-5-|-----7-5-|-----3-2-|-----3-2-|

02:03
G|-----------|-----------------|
D|-5-4-5-6-7-|-5--5-7--7---5---|
A|-----------|-----------5---5-|
E|-----------|-----------------|


-----------------------
02:10
BRIDGE
*******
G|------------------3-----|-----------|---------|------------------------------------|
D|-----------3--3-5---5-3-|------5----|---------|---------------------------7----7---|
A|-1--1-5--5--------------|-5--5----5-|-5-4-2-1-|-1-5--5-7--7-9-9------7--7----7---7-|
E|------------------------|-----------|---------|-----------------7--7---------------|


-----------------------
02:24
VERSE 4
********
G|---------|---------|---------|---------|
D|---------|---------|---------|---------|
A|-5-5-----|-5-5-----|-2-2-----|-2-2-----|
E|-----7-5-|-----7-5-|-----3-2-|-----3-2-|X2


G|-----------|-----------|---------|---------|---------|---------|
D|-----------|-----------|---------|---------|---------|---------|
A|-----------|-----------|-5-5-----|-5-5-----|-2-2-----|-2-2-----|
E|-3---3-5-5-|-3---3-5-5-|-----7-5-|-----7-5-|-----3-2-|-----3-2-|

02:39
G|-----------|-------------|
D|-5-4-5-6-7-|-5--5-7--7-7-|
A|-----------|-------------|
E|-----------|-------------|

02:44
G|---------|---------|---------|---------|
D|---------|---------|---------|---------|
A|-5-5-----|-5-5-----|-2-2-----|-2-2-----|
E|-----7-5-|-----7-5-|-----3-2-|-----3-2-|

02:48
G|-----------|-------------|
D|-5-4-5-6-7-|-5--5-7--7-7-|
A|-----------|-------------|
E|-----------|-------------|

02:53
G|---------|---------|---------|---------|
D|---------|---------|---------|---------|
A|-5-5-----|-5-5-----|-2-2-----|-2-2-----|
E|-----7-5-|-----7-5-|-----3-2-|-----3-2-|

02:57
G|-----------|-------------|
D|-5-4-5-6-7-|-5--5-7--7-7-|
A|-----------|-------------|
E|-----------|-------------|


G|---------|---------|---------|---------|
D|---------|---------|---------|---------|
A|-5-5-----|-5-5-----|-2-2-----|-2-2-----|
E|-----7-5-|-----7-5-|-----3-2-|-----3-2-|X6


         Fade Out................



ENJOY............   
https://primanota.ru/bay-city-rollers/i-only-want-to-be-with-you-chords.htm

Привет, гитарист!

Тебе подарок от сайта PrimaNota.ru

Забрать подарок
ВАМ ПОДАРКИ ОТ ПРОЕКТА
"ГИТАРНАЯ РЕВОЛЮЦИЯ"