Войти:  Facebook Google Twitter Vk Yandex Mail.ru
PrimaNota.ru - самый крупный в мире бесплатный архив песенных текстов, аккордов, табулатур и нот


Avicii - No Pleasing A Woman - аккорды, текст

Печатать
ViraMusic 2019 в Петербурге 4 апреля 2019! Скидка 10%!

No Pleasing A Woman

  • аккорды, текст
Тональность: 
0
Проще! Аппликатуры

No Pleasing A Woman
Avicii
Avicii feat. Billie Joe Armstrong - No Pleasing a Woman

As of October 2014 this song is unreleased, but these chords are based on the preview available 
from Avicii's live shows and I'm pretty confident they're accurate. The strumming pattern's a bit
awkward - listen to the track to get a feel for it. My first tab submitted here by the way!

Chords used:
    Em   G     A     C    D   Bm   B
e|--0----3-----0-----0----2---2----2--|
B|--0----0-----2-----1----3---3----4--|
G|--0----0-----2-----0----2---4----4--|
D|--2----0-----2-----2----0---4----4--|
A|--2----2-----0-----3--------2----2--|
E|--0----3----------------------------|

[Capo on 2nd]

Intro:
Em G A C
Em G A

Verse 1:
Em           G                A       C
I'm tired of being down on my knees,
Em                     G                    A
With the weight of the world coming down on me,
Em               G              C      G
She says there's always someone better waiting for her,
Em         G           A
That I was so lucky to get her

Synth part (x2):
Em G A C

Verse 2:
Em           G                A       C
I'm tired of being down on my knees,
Em                     G                    A
With the weight of the world coming down on me,
Em               G              A      C
She says there's always someone better waiting for her,
Em       G            A
I was so lucky that I get her


Prechorus:
          C
You know, I, I wanna cry,
             Em                G
I wonder why all my tears are dry,
             A
I just don't dare to show I care,
      C               D
I got nothin' left to spare


Chorus:
         C   D Bm  Em
I wonder why I try-y,
         C   D      G                 D
I wonder why-y when nothin' pleases a woman,
         C   D B   Em
I wonder why I try-y,
  D      C   D      G                 D
I wonder why-y when nothin' pleases a woman,
     C                 D
When nothin' pleases a woman,
        G                  D
There's just no pleasin' a woman


Synth part (ending, fades out while repeating final two lines of chords):
 Em G A C   Em G A
 Em G C G   Em G A

 Em G A C   Em G A
 Em G A C   Em G D C

Here's a tab for the synth melody with the chords alongside (capo on 2nd):
e|---------------------------------------------------------------------------|
B|---------------------------------------------------------------------------|
G|-----4-0---------4-0----0-2p0-2-2--0h2-2h3-2p0-----------------------------|
D|-2p0-----2p0h2p0--------------------------------2p0------------------------| x3
A|---------------------------------------------------------------------------|
E|---------------------------------------------------------------------------|

e|---------------------------------------------------------------------------|
B|--------------------------0h3-3-3--0h3-5--3p0------------------------------|
G|-----4-0---------4-0----2---------------------2p0-2p0----------------------|
D|-2p0-----2h0h2p0-----------------------------------------------------------| 
A|---------------------------------------------------------------------------|
E|---------------------------------------------------------------------------|



Any corrections or comments, put them below!   
https://primanota.ru/avicii/no-pleasing-a-woman-chords.htm

Привет, гитарист!

Тебе подарок от сайта PrimaNota.ru

Забрать подарок
ВАМ ПОДАРКИ ОТ ПРОЕКТА
"ГИТАРНАЯ РЕВОЛЮЦИЯ"