Войти:  Facebook Google Twitter Vk Yandex Mail.ru
PrimaNota.ru - самый крупный в мире бесплатный архив песенных текстов, аккордов, табулатур и нот


Avicii - Heart Upon My Sleeve - табы

Печатать
ViraMusic 2019 в Петербурге 4 апреля 2019! Скидка 10%!

Heart Upon My Sleeve

  • аккорды, текст
  • gtp-табы

Авторы: Imagine Dragons, Arash Pournouri, Tim Bergling
Авторы музыки: Arash Pournouri, Tim Bergling

-------------------------------------------------------------------------------
                             Heart Upon My Sleeve - Avicii
-------------------------------------------------------------------------------
Tabbed by: Mattias Krantz
Youtube: mattiaskrantz

Tuning:Standard Bpm: 125    
 P.M: This is me playing the intro using this tab: http://www.youtube.com/watch?v=rsJsO7aB43c 

                                                       
e|--------------------------|--------------------------|---------------------|
B|---------------0h1p0------|--------------------------|--------0------0-----|
G|---------0------------2p0-|-------0-----0h2p0-----0--|---------------------|
D|------2-----2-------------|-----0---0----------4-----|------1------1-------|
A|---3----------------------|--------------------------|---2------2----------|
E|--------------------------|--3-----------------------|---------------------|
 
e|---0--------------|
B|---5---3----------|
G|-----------4/2-0--|
D|------------------|
A|------------------|
E|------------------|

e|--------------------------|--------------------------|---------------------|
B|---------------0h1p0------|--------------------------|--------0------0-----|
G|---------0------------2p0-|-------0----0h2p0-----0---|---------------------|
D|------2-----2-------------|-----0---0---------4------|-----1------1-----1--|
A|---3----------------------|--------------------------|--2------2------2----|
E|--------------------------|--3-----------------------|---------------------|
 

e|----------------|
B|-------0--------|
G|-------------4--|
D|----1--------1--|
A|-2--------2--2--|
E|----------------|
   
https://primanota.ru/avicii/heart-upon-my-sleeve-chords.htm

Привет, гитарист!

Тебе подарок от сайта PrimaNota.ru

Забрать подарок
ВАМ ПОДАРКИ ОТ ПРОЕКТА
"ГИТАРНАЯ РЕВОЛЮЦИЯ"