Войти:  Facebook Google Twitter Vk Yandex Mail.ru
PrimaNota.ru - самый крупный в мире бесплатный архив песенных текстов, аккордов, табулатур и нот


Avenged Sevenfold - Paradigm - бас-таба

Печатать
ViraMusic 2019 в Петербурге 4 апреля 2019! Скидка 10%!

Paradigm


Авторы: Synyster Gates, Brooks Wackerman, Johnny Christ, Zacky Vengeance, M. Shadows

F#|-----------------------------------------------------------------|
C#|-----------------------------------------------------------------|
G#|-5-------------5-4-------------4-5-------------5-4-----4-5-----5-|
C#|---0---------------0---------------0---------------0-------0-----|
    1 2 3 4 1 2 3 4 1 2 3 4 1 2 3 4 1 2 3 4 1 2 3 4 1 2 3 4 1 2 3 4 

F#|-----------------------------------------------------------------|
C#|-----------------------------------------------------------------|
G#|-4-------------5-4-------------4-5-------------5-4-----4-5-----5-|
C#|---0-0-0-0-0-0-----0-0-0-0-0-0-----0-0-0-0-0-0-----0-0-----0-0---|
    1 2 3 4 1 2 3 4 1 2 3 4 1 2 3 4 1 2 3 4 1 2 3 4 1 2 3 4 1 2 3 4 

Verse 0:19
F#|--------------------------------------------------------------------------------------------------|
C#|o-------------------------------------------------------------------------------------------------|
G#|o-------------5-----------------------5-----------------------5-----------------------5-----------|
C#|--5-5-5-5-5-5---5-5-5-5-5-5-5-5-5-5-5---5-5-5-5-5-4-4-4-4-4-4---4-4-4-4-4-4-4-4-4-4-4---4-4-4-4-4-|
     tripl tripl tripl tripl tripl tripl tripl tripl tripl tripl tripl tripl tripl tripl tripl tripl

F#|--------------------------------------------------------------------------------------------(x3)--|
C#|-------------------------------------------------------------------------------------------------o|
G#|-------------5-----------------------5-----------------------1-----------------------1-----------o|
C#|-5-5-5-5-5-5---5-5-5-5-5-5-5-5-5-5-5---5-5-5-5-5-1-1-1-1-1-1---1-1-1-1-1-1-1-1-1-1-1---1-1-1-1-1--|
    tripl tripl tripl tripl tripl tripl tripl tripl tripl tripl tripl tripl tripl tripl tripl tripl

F#|-------------------------------------------------------------------------------------------------|
C#|-------------------------------------------------------------------------------------------------|
G#|-------------5-----------------------5-----------------------5-----------------------5-----------|
C#|-5-5-5-5-5-5---5-5-5-5-5-5-5-5-5-5-5---5-5-5-5-5-4-4-4-4-4-4---4-4-4-4-4-4-4-4-4-4-4---4-4-4-4-4-|
    tripl tripl tripl tripl tripl tripl tripl tripl tripl tripl tripl tripl tripl tripl tripl tripl

F#|--------------------------------------------------------------------------------------------|
C#|--------------------------------------------------------------------------------------------|
G#|-------------5-----------------------5-----------------------1------------------------------|
C#|-5-5-5-5-5-5---5-5-5-5-5-5-5-5-5-5-5---5-5-5-5-5-1-1-1-1-1-1---1-1-1-1-1-1-1-1-1-1-1-/-13-\-|
    tripl tripl tripl tripl tripl tripl tripl tripl tripl tripl tripl tripl tripl tripl 

Chorus 0:59
F#|-----------------------------------------------------------------|
C#|-----------------------------------------------------------------|
G#|-----------------------------------------------------------------|
C#|-5-5-5-5-5-5-5-5-5-5-5-5-5-5-5-5-4-4-4-4-4-4-4-4-4-4-4-4-4-4-4-4-|
    1 + 2 + 3 + 4 + 1 + 2 + 3 + 4 + 1 + 2 + 3 + 4 + 1 + 2 + 3 + 4 +

F#|-----------------------------------------------------------------|
C#|-----------------------------------------------------------------|
G#|-1-1-1-1-1-1-1-1-1-1-1-1-1-1-1-1-3-3-3-3-3-3-3-3-5-5-5-3-3-5-3-5-|
C#|-----------------------------------------------------------------|
    1 + 2 + 3 + 4 + 1 + 2 + 3 + 4 + 1 + 2 + 3 + 4 + 1 + 2 + 3 + 4 +

F#|-----------------------------------------------------------------|
C#|-----------------------------------------------------------------|
G#|-----------------------------------------------------------------|
C#|-5-5-5-5-5-5-5-5-5-5-5-5-8-5-8-5-4-4-4-4-4-4-4-4-4-4-3-4-4-4-5-4-|
    1 + 2 + 3 + 4 + 1 + 2 + 3 + 4 + 1 + 2 + 3 + 4 + 1 + 2 + 3 + 4 +

F#|-----------------------------------------------------------------|
C#|-----------------------------------------------------------------|
G#|-1-1-1-1-1-1-1-1-1-1-1-1-1-1-1-1-3-3-3-3-3-3-3-3-5-5-5-5-5-5-5-5-|
C#|-----------------------------------------------------------------|
    1 + 2 + 3 + 4 + 1 + 2 + 3 + 4 + 1 + 2 + 3 + 4 + 1 + 2 + 3 + 4 +

F#|---------------------------------|
C#|---------------------------------|
G#|---------------------------------|
C#|-5---5---5---5---6---------------|
    1 + 2 + 3 + 4 + 1 + 2 + 3 + 4 + 

Interlude
F#|-----------------------------------------------------------------|
C#|-----------------------------------------------------------------|
G#|-5-------5-----5-4-------4-----4-5-------5-----5-4-------4---4-5-|
C#|---0---0---0-------0---0---0-------0---0---0-------0---0---0-----|
    1 2 3 4 1 2 3 4 1 2 3 4 1 2 3 4 1 2 3 4 1 2 3 4 1 2 3 4 1 2 3 4 

Verse 1:30
F#|-------------------------------------------------------------------------------------------------|
C#|-------------------------------------------------------------------------------------------------|
G#|-------------5-----------------------5-----------------------5-----------------------5-----------|
C#|-5-5-5-5-5-5---5-5-5-5-5-5-5-5-5-5-5---5-5-5-5-5-4-4-4-4-4-4---4-4-4-4-4-4-4-4-4-4-4---4-4-4-4-4-|
    tripl tripl tripl tripl tripl tripl tripl tripl tripl tripl tripl tripl tripl tripl tripl tripl

F#|-------------------------------------------------------------------------------------------------|
C#|-------------------------------------------------------------------------------------------------|
G#|-------------5-----------------------5-----------------------1-----------------------1-----------|
C#|-5-5-5-5-5-5---5-5-5-5-5-5-5-5-5-5-5---5-5-5-5-5-1-1-1-1-1-1---1-1-1-1-1-1-1-1-1-1-1---1-1-1-1-1-|
    tripl tripl tripl tripl tripl tripl tripl tripl tripl tripl tripl tripl tripl tripl tripl tripl

F#|-------------------------------------------------------------------------------------------------|
C#|-------------------------------------------------------------------------------------------------|
G#|-------------5-----------------------5-----------------------5-----------------------5-----------|
C#|-5-5-5-5-5-5---5-5-5-5-5-5-5-5-5-5-5---5-5-5-5-5-4-4-4-4-4-4---4-4-4-4-4-4-4-4-4-4-4---4-4-4-4-4-|
    tripl tripl tripl tripl tripl tripl tripl tripl tripl tripl tripl tripl tripl tripl tripl tripl

F#|---------------------------------------------------------------------------------------------|
C#|---------------------------------------------------------------------------------------------|
G#|-------------5-----------------------5-----------------------1-----------------------1-1-1-1-|
C#|-5-5-5-5-5-5---5-5-5-5-5-5-5-5-5-5-5---5-5-5-5-5-1-1-1-1-1-1---1-1-1-1-1-1-1-1-1-1-1---------|
    tripl tripl tripl tripl tripl tripl tripl tripl tripl tripl tripl tripl tripl tripl 3 + 4 +

Chorus 1:50
F#|-----------------------------------------------------------------|
C#|-----------------------------------------------------------------|
G#|-----------------------------------------------------------------|
C#|-5-5-5-5-5-5-5-5-5-5-5-5-5-5-5-5-4-4-4-4-4-4-4-4-4-5-3-4-4-5-3-4-|
    1 + 2 + 3 + 4 + 1 + 2 + 3 + 4 + 1 + 2 + 3 + 4 + 1 + 2 + 3 + 4 +

F#|-----------------------------------------------------------------|
C#|-----------------------------------------------------------------|
G#|-1-1-1-1-1-1-1-1-1-1-1-1-1-1-0-1-3-3-3-3-3-3-3-3-5-5-5-5-3-5-3-5-|
C#|-----------------------------------------------------------------|
    1 + 2 + 3 + 4 + 1 + 2 + 3 + 4 + 1 + 2 + 3 + 4 + 1 + 2 + 3 + 4 +


F#|-----------------------------------------------------------------|
C#|-----------------------------------------------------------------|
G#|-------------------------------------------------------------0-3-|
C#|-5---5-5-5-5-5-5-5-5-5-5-8-5-8-5-4-4-4-4-4-4-4-4-4-5-3-4-4-5-----|
    1 + 2 + 3 + 4 + 1 + 2 + 3 + 4 + 1 + 2 + 3 + 4 + 1 + 2 + 3 + 4 +

F#|-----------------------------------------------------------------|
C#|-----------------------------------------------------------------|
G#|-1-1-1-1-1-1-1-1-1-1-1-1-1-1-0-1-3-3-3-3-3-3-3-3-5-5-5-5-5-5-5-5-|
C#|-----------------------------------------------------------------|
    1 + 2 + 3 + 4 + 1 + 2 + 3 + 4 + 1 + 2 + 3 + 4 + 1 + 2 + 3 + 4 +

F#|---------------------------------|
C#|---------------------------------|
G#|---------------------------------|
C#|-5---5---5---5---6---------------|
    1 + 2 + 3 + 4 + 1 + 2 + 3 + 4 + 

Interlude 
F#|-----------------------------------------------------------------|
C#|-----------------------------------------------------------------|
G#|-5-------5-----5-4-------4-----4-5-------5-----5-4-------4---4-5-|
C#|---0---00--0-------0---0---0-------0---0---0-------0---0---0-----|
    1 2 3 4 1 2 3 4 1 2 3 4 1 2 3 4 1 2 3 4 1 2 3 4 1 2 3 4 1 2 3 4 

F#|-----------------------------------------------------------------|
C#|-----------------------------------------------------------------|
G#|-5-------5-----5-4-------4-----4-5-------5-----5-4-------4---4-5-|
C#|---0---00--0-------0---00--0-------0---00--0-------0---0---0-----|
    1 2 3 4 1 2 3 4 1 2 3 4 1 2 3 4 1 2 3 4 1 2 3 4 1 2 3 4 1 2 3 4 

Bridge 2:32
F#|-------------------------------------------------------------------|
C#|o-----------------------------------------------------------------o|
G#|o-----------------0---------------1---------------3-------5-------o|x4
C#|--5----------------------------------------------------------------|
     1 + 2 + 3 + 4 + 1 + 2 + 3 + 4 + 1 + 2 + 3 + 4 + 1 + 2 + 3 + 4 +

F#|---------------------------------|
C#|---------------------------------|
G#|---------------------------------|
C#|-5-5-----5---4---3-------3-3-----|
    1 + 2 + 3 + 4 + 1 + 2 + 3 + 4 + 

Solo 2:54
F#|--------------------------------------------------------------------------------------------(x4)---|
C#|o-------------------------------------------------------------------------------------------------o|
G#|o-------------------------------------------------------------------------------------------------o|
C#|--0-0-0-0-0-0-0-0-0-0-0-0-0-0-0-0-0-0-0-0-0-0-0-0-0-0-0-0-0-0-0-0-0-0-0-0-0-0-0-3-3-3-2-2-2-1-1-1--|
     tripl tripl tripl tripl tripl tripl tripl tripl tripl tripl tripl tripl tripl tripl tripl tripl

3:14
F#|-----------------------------------------------------------------------------------------|
C#|-----------------------------------------------------------------------------------------|
G#|-0---0-0-0-0-0-0-0-0-0-0-0-0-0-0-0---------0---0-0-0-0-0-0-0-0-0-0-0-0-0-0-0-0-0-0-0-0-0-|
C#|-----------------------------------8---5-------------------------------------------------|
    1 + tripl tripl tripl tripl tripl 3 + 4 + 1 + tripl tripl tripl tripl tripl tripl tripl

F#|-----------------------------------------------------------------|
C#|-----------------------------------------------------------------|
G#|-----------------------------------------------------------------|
C#|-0---0---6--5--3-0---0---6--5--3-0---0---6--5--3-0---0---6--5--3-|
    1 + 2 + Triplet 1 + 2 + Triplet 1 + 2 + Triplet 1 + 2 + Triplet

Verse 3:24
F#|-----------------------------------------------------------------|
C#|-----------------------------------------------------------------|
G#|-----------------------------------------------------------------|
C#|-0-------0-------1-------1-------3-------3-------1-------1--3--1-|
    1 + 2 + 3 + 4 + 1 + 2 + 3 + 4 + 1 + 2 + 3 + 4 + 1 + 2 + Triplet

F#|-----------------------------------------------------------------|
C#|-----------------------------------------------------------------|
G#|-----------------------------------------------------------------|
C#|-0-------0-------1-------1-------3-------3-------1-------1--1--3-|
    1 + 2 + 3 + 4 + 1 + 2 + 3 + 4 + 1 + 2 + 3 + 4 + 1 + 2 + Triplet

F#|-----------------------------------------------------------------|
C#|-----------------------------------------------------------------|
G#|-----------------------------------------------------------------|
C#|-5---5---5---5---5---5---5---5---1---1---1---1---1---1---1---1---|
    1 + 2 + 3 + 4 + 1 + 2 + 3 + 4 + 1 + 2 + 3 + 4 + 1 + 2 + 3 + 4 +

F#|-----------------------------------------------------------------|
C#|---------------------------------3---3---3---3---4---4---4---4---|
G#|-3---3---3---3---3---3---3---3-----------------------------------|
C#|-----------------------------------------------------------------|
    1 + 2 + 3 + 4 + 1 + 2 + 3 + 4 + 1 + 2 + 3 + 4 + 1 + 2 + 3 + 4 +

Outro 3:44
F#|-------7---------------9-----------------------------------------|
C#|-----------------------------------------------------------------|
G#|-----------------0---0---0-0---0-1---1-----1---1-3-----3-355-355-|
C#|-5---5-----5---5-------------------------------------------------|
    1 + 2 + 3 + 4 + 1 + 2 + 3 + 4 + 1 + 2 + 3 + 4 + 1 + 2 + 3 + 4 +

F#|-------------------------------------------------------------------12----|
C#|-5-5---5-5---4-5-7-------7-------8---------------10-10-10-10-12-12----12-|
G#|-------------------------------------------------------------------------|
C#|-------------------------------------------------------------------------|
    1 + 2 + 3 + 4 + 1 + 2 + 3 + 4 + 1 + 2 + 3 + 4 + 1  +  2  +  3  +  4  +

F#|-----------------------------------------------------------------|
C#|-----------------------------------------------------------------|
G#|-----------------------------------------------------------------|
C#|-5---------------------------------------------------------------|
    1 + 2 + 3 + 4 + 1 + 2 + 3 + 4 + 1 + 2 + 3 + 4 + 1 + 2 + 3 + 4 +
Tabbed by Dave Vucko
   
https://primanota.ru/avenged-sevenfold/paradigm-chords.htm

Привет, гитарист!

Тебе подарок от сайта PrimaNota.ru

Забрать подарок
ВАМ ПОДАРКИ ОТ ПРОЕКТА
"ГИТАРНАЯ РЕВОЛЮЦИЯ"