# 0 1 2 3 4 5 6 7 8 9 A B C D E F G H I J K L M N O P Q R S T U V W X Y Z
А Б В Г Д Е Ж З И І Й К Л М Н О П Р С Т У Ф Х Ц Ч Ш Щ Ы Э Ю Я
Войти:  Facebook Google Twitter Vk Yandex Mail.ru



Avenged Sevenfold - Doing Time - табы

 » 
 » 
Doing Time
Онлайн-интенсив по вокалу
  • аккорды, текст
  • gtp-табы
-------------------------------------------------------------------------------
                    doing time (solo) - Avenged sevenfold
-------------------------------------------------------------------------------
Tabbed by: xXskittlegodXx
E-mail: xXskittlegodXx@gmail.com

Tuning: Drop D - (D A D G B E)

I saw that no one had tabbed the solo to this song so i took at a shot at it. it was done by ear and may not be 
100% accurate

SOLO

part 1 - tremolo picked while slowly bending and releasing the note

e|11-11-11-11-11-11-11-11-11-11-11-11-11-11-11-11-11-11-11-11-11-11-11-11-11-|
B|---------------------------------------------------------------------------|
G|---------------------------------------------------------------------------|
D|---------------------------------------------------------------------------|
A|---------------------------------------------------------------------------|
D|---------------------------------------------------------------------------|

e|14-14-14-14-14-14-14-14-14-14-14-14-14-17-17-17-17-17-17-17-17-17-17-17-17-|
B|---------------------------------------------------------------------------|
G|---------------------------------------------------------------------------|
D|---------------------------------------------------------------------------|
A|---------------------------------------------------------------------------|
D|---------------------------------------------------------------------------|

SOLO
part 2 - (not sure about this bit)

e|-------------------------------------------------------------------------------------------|
B|-15-12----15-12----15-12----15-12----15-12----15-12----15-12----15-12----15-12----15-12----|
G|-------14-------14-------14-------14-------14-------14-------14-------14-------14-------14-|
D|-------------------------------------------------------------------------------------------|
A|-------------------------------------------------------------------------------------------|
D|-------------------------------------------------------------------------------------------|

e|-17-12-17-12-15-12-15-12-15-12-15-12---------------------------------------|
B|-------------------------------------15-12-------12-15-14-12---------------|
G|-------------------------------------------15-12-------------15-14-12------|
D|----------------------------------------------------------------------12~--|
A|---------------------------------------------------------------------------|
D|---------------------------------------------------------------------------|

e||----------------------------------||     
B||--12b-------------14b-------------||     
G||--12b-------------14b----14-12-14-||      
D||--------14-12-14------------------||   
A||----------------------------------||      
D||----------------------------------||     

e|---------------------------------------------------------------------------|
B|----12b-----------14b------------15b-------------17b-----------------------|
G|----12b-----------14b----14-12---15b----15-14----17b-----------------------|
D|----------14-12------------------------------------------------------------|
A|---------------------------------------------------------------------------|
D|---------------------------------------------------------------------------|

Guitar 2
Rhythm

e|---------------------------------------------------------------------------|
B|---------------------------------------------------------------------------|
G|---------------------------------------------------------------------------|
D|-2-5-2-5-2-0-2---2-5-2-5-2-0-2---2-5-2-5-2-0-2-8-8-5-2-5-2-0---------------| x4
A|-2-5-2-5-2-0-2---2-5-2-5-2-0-2---2-5-2-5-2-0-2-8-8-5-2-5-2-0---------------|
D|-2-5-2-5-2-0-2---2-5-2-5-2-0-2---2-5-2-5-2-0-2-8-8-5-2-5-2-0---------------|



If you have any corrections, please email them to me at xXskittlegodXx@gmail.com


************************************

| /   slide up
| \   slide down
| h   hammer-on
| p   pull-off
| ~   vibrato
| +   harmonic
| x   Mute note
| b   Bend
| pb  Pre-bend
| br  Bend release
| pbr Pre-bend release
| brb Bend release bend

************************************   

Avenged Sevenfold - Doing Time - ноты

(включить)
Другие композиции этого автора:
Другие материалы по этой песне:

https://primanota.ru/avenged-sevenfold/doing-time-chords.htm

Привет, гитарист!

Тебе подарок от сайта PrimaNota.ru

Забрать подарок
ВАМ ПОДАРКИ ОТ ПРОЕКТА
"ГИТАРНАЯ РЕВОЛЮЦИЯ"