Войти:  Facebook Google Twitter Vk Yandex Mail.ru
PrimaNota.ru - самый крупный в мире бесплатный архив песенных текстов, аккордов, табулатур и нот


Avenged Sevenfold - Creating God - табы

Играешь на гитаре? Зарабатывай! Ищем наставников по гитаре

************************************

If you have corrections PLEASE let me know and comment or email me magmarock101@gmail.com
 
[Intro] (Play until verse)
e|---------------------------------------------------------------------------|
B|---------------------------------------------------------------------------|
G|---------------------------------------------------------------------------|
D|-0-2-3-5-------------------------------------------------------------------|
A|-0-2-3-5-------------------------------------------------------------------|
D|-0-2-3-5-------------------------------------------------------------------|


[Verse] 
                                      x2                                                        x2
e|--------------------------------------|--------------------------------------------------------|
B|--------------------------------------|--------------------------------------------------------|
G|--------------------------------------|--------------------------------------------------------|
D|--------------------------------------|--------------------------------------------------------|
A|-0-0-0--------------5-----0-0-0-------|-0--0--0--0-------------0--0--0----7p0-6-3~ ------------|
D|-0-0-0-------0-3-6----5b--0-0-0-------|-0000000000-0-3-6-12-5b-0000000000-7p0-6-3~ ------------|
   PMPMPM      PMPM  PM     PMPMPM         PM PM PM               PM PM PM



[Pre-Chorus]

e|---------------------------------------------------------------------------|
B|---------------------------------------------------------------------------|
G|---------------------------------------------------------------------------|
D|---------------------------------------------------------------------------|
A|-------------------------------------0-------------------------------------|
D|-3530-3530-3530-3530-3530--3530-3530-0-------------------------------------|
   PMPMPMPMPMPMPMPMPMPMPMPMPMPMPMPMPM    

e|---------------------------------------------------------------------------|
B|---------------------------------------------------------------------------|
G|---------------------------------------------------------------------------|
D|---------------------------------------------------------------------------|
A|---------------------------------------------------------------------------|
D|-3530-3530-3530-3530-3530-3530-35b------------------------------------------|
                                 gradually bend that 5 up

[Chorus] Listen for how the and when the octaves are played

e|---------------------------------------------------------------------------|
B|---------------------------------------------------------------------------|
G|-7-11-14-9-5-11-14-15-9-10-17----------------------------------------------|
D|-x-x--x--x-x-x--x--x--x-x--x-----------------------------------------------|
A|-5-9--12-7-7-9--12-13-7-8--15----------------------------------------------|
D|---------------------------------------------------------------------------|x2
                          Strum the last two according to the song

[Verse]
[Pre-Chorus]
[Chorus]

After Chorus] Play this after the second chorus
e|---------------------------------------------------------------------------|
B|---------------------------------------------------------------------------|
G|-5/4-9---------------------------------------------------------------------|
D|-x-x-x---------------------------------------------------------------------|
A|-7/6-7---------------------------------------------------------------------|
D|---------------------------------------------------------------------------|x4

[Bridge] First part of the bridge is the intro verse, then at the end of the section you'll play an open D
string. after that, play this. Listen for the timing. Im not sure if this is correct, but that's what it 
sounds like

e|---------------------------------------------------------------------------|Play this a few times and then
B|---------------------------------------------------------------------------|You'll hear it go faster. 
G|---------------------------------------------------------------------------|
D|---------------------------------------------------------------------------|
A|------------------0--------------------------------------------------------|
D|--3-2-3-5-3-2-3-2-0--------------------------------------------------------|
    PMPMPMPMPMPMPMPM

After you hear it, play the same thing but tremolo pick open d inbetween each 32353232

There's one part of the bridge im not sure of, i'll figure it out later. But after the solo, play

[Verse]
[Pre-chorus]

[after chorus]

You can end the song on either these two chords
e|------------------------------------|--------------------------------------|
B|------------------------------------|--------------------------------------|
G|------------------------------------|--------------------------------------|
D|-0----------------------------------|-5------------------------------------|
A|-0----------------------------------|-x------------------------------------|
D|-0----------------------------------|-7------------------------------------|

************************************
         
| x   Dead note
| g   Grace note
| (n) Ghost note
| h   Hammer-on
| p   Pull-off
| r   Release
| >   Accented note
| t   Tapping
| b   Bend
| br  Bend release
| pb  Pre-bend
| pbr Pre-bend release
| /   Slide up
| \   Slide down
| ~   Vibrato
| s   Slap
| P   Pop
| PM  Palm mute
| TR  Trill
| N   Tremolo
    
Другие материалы по этой песне:

https://primanota.ru/avenged-sevenfold/creating-god-chords.htm

Привет, гитарист!

Тебе подарок от сайта PrimaNota.ru

Забрать подарок
ВАМ ПОДАРКИ ОТ ПРОЕКТА
"ГИТАРНАЯ РЕВОЛЮЦИЯ"